Pavel Stratan - M-am nascut de ziua mea (GuitarPro intro)

Introul in fisierul guitar pro.


E |-----------------------------------------------------------------------------
B |-----------------------------------------------------------------------------
G |-----------------------------------------------------------------------------
D |-----------------------------------------------------------------------------
A |-----------------------------------------------------------------------------
E |--12s---------5-----------------------------------------5--5--5-----7-----8--


-----------------------|
-----------------------|
-----------------------|
-----------------------|
-----------------------|
---8-----8-----8-------|


--------------------------------------------------------------------------------
--------------------------------------------------------------------------------
--------------------------------------------------------------------------------
--------------------------------------------------------------------------------
--------------------------------------------------------------------------------
--8-----------------------3-----------------------------------------8--8--7-----


--------------------|
--------------------|
--------------------|
--------------------|
--------------------|
8-----12----12------|


--------------------------------------------------------------------------------
--------------------------------------------------------------------------------
--------------------------------------------------------------------------------
--------------------------------------------------------------------------------
--------------------------------------------------------------------------------
--12----12----12----------12s---------5-----------------------------------------


--------------------|
--------------------|
--------------------|
--------------------|
--------------------|
12-12-12----13------|


--------------------------------------------------------------------------------
--------------------------------------------------------------------------------
--------------------------------------------------------------------------------
--------------------------------------------------------------------------------
--------------------------------------------------------------------------------
--15----15----15----15----15----------15s---------10----------------------------


--------------------|----------------------------------------------------|
--------------------|----------------------------------------------------|
--------------------|----------------------------------------------------|
--------------------|----------------------------------------------------|
--------------------|----------------------------------------------------|
------------12-12---|--12-13-12-10-8--7--5-------------------------------|