Pavel Stratan - Tata

  • (20 voturi)
  • Contribuție:  anonime
Am
Tata, la beci când o schimbat lăcata
                   G
Eu şi cu fratele deodată
                         E  Riff A
Ne-am întrebat de ce şi cum

Riff A:

E||--------------------|
B||--------------------|
G||--------------------|
D||---2--0-------------|
A||---------3--2-------|
E||--------------------|

Am
Gata, pe suflet mi se pune pata
                           G
Ei cum să-i lămureşti lui tata
                          E
Că te-aşteaptă cineva în drum

Răspunde, o sârmă să găsesc de unde
şi fratele în trei secunde
Le schimbă soarta la băieţi

Da tata, n-o vrut deodată să ne bată
Pân-o găsit sârma-n lăcată 
şi-n fundul beciului pe toţi

Am                                               E
şi-am încercat să nu încerc da nu mi s-o primit deodată
E7                                             Am
Cureaua tatii cât o-ncerc de poloboc ori îi mai lată
Am                                                 E
şi chiar şi daca vreau să fug precis la nime nu îi pasă
E7                                                  Am
şi eu ştiu că toţi care-s aici se duc da eu rămân acasă


Da mama, când într-o bună zi-şi dă seamă
Că în borcane-i numa rama şi zama
- Din porcul nostru a rămas

Of, of, ofează, mai şede
Oricum speranţa nu şi-o pierde, se vede
Cu grijă schimbă iar lăcata şi crede
Că tot s-o terminat de azi

De azi, de azi, da mâine, gata de mâine
Promit că nu vorbesc cu nimeni
şi-n mâini mă iau singur pe mine
Că m-am săturat atâtat să ard

Da iară, pân mâine vine-ntâi diseară
şi tata-n drum ne prinde iară
Pe toţi movilă lângă gard

Să fug nu pot, să stau nu vreau, să zic că nu mai fac nu crede
Ce-nteresant îi tatăl meu mănâncă numai nu cotlete
şi cât de des nu s-ar schimba lăcata n-are nici o vină
Noi cheie facem chestia-i că degrabă vinul se termină

solo:


E||-------5--7--8----7-|--5--4--5---------------|------------------|
B||--5-----------------|------------5-----5--5--|--6--5------------|
G||--------------------|------------------------|----------7--5--7-|
D||--------------------|------------------------|------------------|
A||--------------------|------------------------|------------------|
E||--------------------|------------------------|------------------|


--------------------|-------4--5--7----5----|--4--5--4-------------|
--------------------|--5--------------------|--------------5----6--|
--4-----------------|-----------------------|----------------------|
--------------------|-----------------------|----------------------|
--------------------|-----------------------|----------------------|
--------------------|-----------------------|----------------------|


-----------------------|--------------------|-------5--7--8----7---|
--5---------------6----|--5-----------------|--5-------------------|
-------7----5--7-------|--------------------|----------------------|
-----------------------|--------------------|----------------------|
-----------------------|--------------------|----------------------|
-----------------------|--------------------|----------------------|


--5--4--5-----------------|-----------------------|----------------|
--------------5-----5--5--|--6----5---------------|----------------|
--------------------------|------------7--5--7----|--4-------------|
--------------------------|-----------------------|----------------|
--------------------------|-----------------------|----------------|
--------------------------|-----------------------|----------------|


--------------------------|--------------------------|
--5--6--8--8--6--5--6--5--|--------------------------|
--------------------------|--7--5--4-----4--5--7--5--|
--------------------------|-----------7--------------|
--------------------------|--------------------------|
--------------------------|--------------------------|


--------------------------|--------------------|-------------------|
--------------------------|--------------------|-------------------|
--4-----------4--5--4-----|--------------------|-------------------|
-----7--6--7-----------6--|--7-----------------|-------10-------9--|
--------------------------|--------------------|--7----------------|
--------------------------|--------------------|-------------------|

       ^              
-------0------------||
-------1------------||
-------2------------||
-------2------------||
-------0------------||
--------------------||
  • Liviel
    2 august 2010 18:27
    Poftim bataia cu care stratan interpreteaza 99 de % din cintecele lui B-js B-sjs (B-bas,j-jos,s-sus)!!succese
  • antibahus
    30 iunie 2010 23:49
    DA , chiar ar atrebui de pus bataia caci ce folos e sa mai inveti acest cintec daca nu shtii bataia...
  • GikSon
    7 februarie 2010 19:01
    imi spune si mie cineva bataia la acest cantec va rog : ID RoscovanGh