Phoenix - Anotimpul 5

  • (10 voturi)
  • Contribuție:  anonim318
  • Ultima actualizare: 28.05.2008
Fisier guitar pro 5 - Chitara / Bass / Bongosi / Blökflüte

Am scris acest tab mai mult din amintiri si in limita in care ma descurc cu
Guitar-Pro-ul, sper sa se apropie cat de mult cu putinta de original :-? 
Si inca o chesti, nu mai tineam  minte bine calumea ordinea fragmentelor si e 
posibil sa fi omis anumite repetitii :-s  

Oricum, multa bafta cu aceasta minunata melodie :)

Alzwded

Flute (Capo 12)
E||-------|-------|-------|-------|-------|-------|-------|-------|
B||-------|-------|-------|-------|-------|-------|-------|-------|
G||-------|-------|-------|-------|-------|-------|-------|-------|
D||-------|-------|-------|-------|-------|-------|-------|-------|
A||-------|-------|-------|-------|-------|-------|-------|-------|
E||-------|-------|-------|-------|-------|-------|-------|-------|


    Q    E  Q    E  Q    Q       Q    E  Q    E  Q    Q     
|----------------0-------3----|--3----L--0-----------------|
|-----------1-------3---------|---------------1--3----1----|
|*--2----L--------------------|----------------------------|
|*----------------------------|----------------------------|
|-----------------------------|----------------------------|
|-----------------------------|----------------------------|


  Q    E  Q    E  Q    Q       W                Q     
--1----L--0-----------------|------------------------|
---------------3--4----4----|--5---------------------|
----------------------------|------------------------|
----------------------------|------------------------|
----------------------------|------------------------|
----------------------------|------------------------|


  Q    E  Q    E  Q    Q       Q    E  Q    E  Q    Q     
---------------0-------3----|--3----L--0-----------------|
----------1-------3---------|---------------1--3----1----|
--2----L--------------------|----------------------------|
----------------------------|----------------------------|
----------------------------|----------------------------|
----------------------------|----------------------------|


  Q    E  Q    E  Q    Q       W                Q       
--1----L--0-----------------|-------------------------||
---------------3--1----0----|-------------------------||
----------------------------|--2---------------------*||
----------------------------|------------------------*||
----------------------------|-------------------------||
----------------------------|-------------------------||


   Q    E  Q    E  Q    Q       E  Q    Q    E  E  E  Q     
-----------------------------|-----------------------------|
----------------0--1----0----|-----------------------------|
*--2----L--2-----------------|--2--0----0----2-------------|
*----------------------------|------------------2--0--2----|
-----------------------------|-----------------------------|
-----------------------------|-----------------------------|


  Q    E  Q    E  Q    Q       W                Q     
----------------------------|------------------------|
----------------------------|------------------------|
----------------------------|------------------------|
--0----L-------0--1----1----|--2---------------------|
----------3-----------------|------------------------|
----------------------------|------------------------|


  Q    E  Q    E  Q    Q       E  Q    Q    E  E  E  Q     
----------------------------|-----------------------------|
---------------0--1----0----|-----------------------------|
--2----L--2-----------------|--2--0----0----2-------------|
----------------------------|------------------2--0--2----|
----------------------------|-----------------------------|
----------------------------|-----------------------------|


  Q    E  Q    E  Q    Q       H        Q    Q    E  E   
----------------------------|---------------------------|
----------------------------|------------------------1--|
------------------1----1----|--2--------L---------2-----|
--3----L--2----2------------|---------------------------|
----------------------------|---------------------------|
----------------------------|---------------------------|


  Q    E  Q    E  Q    Q       Q    E  Q    E  E  E  E  E   
-----------------------0----|--3----L--0-------------------|
--3----L--3----1--3---------|---------------3--1--0-----0--|
----------------------------|------------------------2-----|
----------------------------|------------------------------|
----------------------------|------------------------------|
----------------------------|------------------------------|


  Q    E  Q    E  Q    Q       H        Q    Q    E  E   
----------------------------|---------------------------|
--1----L--1----3--1----3----|--5--------L------------1--|
----------------------------|---------------------2-----|
----------------------------|---------------------------|
----------------------------|---------------------------|
----------------------------|---------------------------|


  Q    E  Q    E  Q    Q       Q    E  Q    E  E  E  E  E   
-----------------------0----|--3----L--0-------------------|
--3----L--3----1--3---------|---------------3--1--0-----0--|
----------------------------|------------------------2-----|
----------------------------|------------------------------|
----------------------------|------------------------------|
----------------------------|------------------------------|


  Q    E  E  E  E  Q    Q       W                Q     
-----------------------------|------------------------|
--1----L--1--3--1--0---------|------------------------|
------------------------0----|--2---------------------|
-----------------------------|------------------------|
-----------------------------|------------------------|
-----------------------------|------------------------|


  Q    E  Q    E  Q    Q       Q    E  Q    E  Q    Q     
---------------0-------3----|--3----L--0-----------------|
----------1-------3---------|---------------1--3----1----|
--2----L--------------------|----------------------------|
----------------------------|----------------------------|
----------------------------|----------------------------|
----------------------------|----------------------------|


  Q    E  Q    E  Q    Q       W                Q     
--1----L--0-----------------|------------------------|
---------------3--4----4----|--5---------------------|
----------------------------|------------------------|
----------------------------|------------------------|
----------------------------|------------------------|
----------------------------|------------------------|


  Q    E  Q    E  Q    Q       Q    E  Q    E  Q    Q     
---------------0-------3----|--3----L--0-----------------|
----------1-------3---------|---------------1--3----1----|
--2----L--------------------|----------------------------|
----------------------------|----------------------------|
----------------------------|----------------------------|
----------------------------|----------------------------|


  Q    E  Q    E  Q    Q       W                Q     
--1----L--0-----------------|------------------------|
---------------3--1----0----|------------------------|
----------------------------|--2---------------------|
----------------------------|------------------------|
----------------------------|------------------------|
----------------------------|------------------------|


  Q    E  Q    E  Q    Q       E  Q    Q    E  E  E  Q     
----------------------------|-----------------------------|
---------------0--1----0----|-----------------------------|
--2----L--2-----------------|--2--0----0----2-------------|
----------------------------|------------------2--0--2----|
----------------------------|-----------------------------|
----------------------------|-----------------------------|


  Q    E  Q    E  Q    Q       W                Q     
----------------------------|------------------------|
----------------------------|------------------------|
----------------------------|------------------------|
--0----L-------0--1----1----|--2---------------------|
----------3-----------------|------------------------|
----------------------------|------------------------|


  Q    E  Q    E  Q    Q       E  Q    Q    E  E  E  Q     
----------------------------|-----------------------------|
---------------0--1----0----|-----------------------------|
--2----L--2-----------------|--2--0----0----2-------------|
----------------------------|------------------2--0--2----|
----------------------------|-----------------------------|
----------------------------|-----------------------------|


  Q    E  Q    E  Q    Q       H        Q    Q    E  E   
----------------------------|---------------------------|
----------------------------|------------------------1--|
------------------1----1----|--2--------L---------2-----|
--3----L--2----2------------|---------------------------|
----------------------------|---------------------------|
----------------------------|---------------------------|


  Q    E  Q    E  Q    Q       Q    E  Q    E  E  E  E  E   
-----------------------0----|--3----L--0-------------------|
--3----L--3----1--3---------|---------------3--1--0-----0--|
----------------------------|------------------------2-----|
----------------------------|------------------------------|
----------------------------|------------------------------|
----------------------------|------------------------------|


  Q    E  Q    E  Q    Q       H        Q    Q    E  E   
----------------------------|---------------------------|
--1----L--1----3--1----3----|--5--------L------------1--|
----------------------------|---------------------2-----|
----------------------------|---------------------------|
----------------------------|---------------------------|
----------------------------|---------------------------|


  Q    E  Q    E  Q    Q       Q    E  Q    E  E  E  E  E   
-----------------------0----|--3----L--0-------------------|
--3----L--3----1--3---------|---------------3--1--0-----0--|
----------------------------|------------------------2-----|
----------------------------|------------------------------|
----------------------------|------------------------------|
----------------------------|------------------------------|


  Q    E  E  E  E  Q    Q       W                Q       W                Q     
-----------------------------|------------------------|------------------------|
--1----L--1--3--1--0---------|------------------------|------------------------|
------------------------0----|--2---------------------|------------------------|
-----------------------------|------------------------|------------------------|
-----------------------------|------------------------|------------------------|
-----------------------------|------------------------|------------------------|


  W                Q       W                Q       W                Q     
------------------------|------------------------|------------------------|
------------------------|------------------------|------------------------|
------------------------|------------------------|------------------------|
------------------------|------------------------|------------------------|
------------------------|------------------------|------------------------|
------------------------|------------------------|------------------------|


  W                Q       W                Q       W                Q     
------------------------|------------------------|------------------------|
------------------------|------------------------|------------------------|
------------------------|------------------------|------------------------|
------------------------|------------------------|------------------------|
------------------------|------------------------|------------------------|
------------------------|------------------------|------------------------|


  W                Q       Q    E  Q    E  Q    Q     
------------------------|----------------------------|
------------------------|---------------0--1----0----|
------------------------|--2----L--2-----------------|
------------------------|----------------------------|
------------------------|----------------------------|
------------------------|----------------------------|


  E  Q    Q    E  E  E  Q       Q    E  Q    E  Q    Q     
-----------------------------|----------------------------|
-----------------------------|----------------------------|
--2--0----0----2-------------|----------------------------|
------------------2--0--2----|--0----L-------0--1----1----|
-----------------------------|----------3-----------------|
-----------------------------|----------------------------|


  W                Q       Q    E  Q    E  Q    Q     
------------------------|----------------------------|
------------------------|---------------0--1----0----|
------------------------|--2----L--2-----------------|
--2---------------------|----------------------------|
------------------------|----------------------------|
------------------------|----------------------------|


  E  Q    Q    E  E  E  Q       Q    E  Q    E  Q    Q     
-----------------------------|----------------------------|
-----------------------------|----------------------------|
--2--0----0----2-------------|------------------1----1----|
------------------2--0--2----|--3----L--2----2------------|
-----------------------------|----------------------------|
-----------------------------|----------------------------|


  H        Q    Q    E  E     Q    E  Q    E  Q    Q     
---------------------------|-----------------------0----|
------------------------1--|--3----L--3----1--3---------|
--2--------L---------2-----|----------------------------|
---------------------------|----------------------------|
---------------------------|----------------------------|
---------------------------|----------------------------|


  Q    E  Q    E  E  E  E  E     Q    E  Q    E  Q    Q     
--3----L--0-------------------|----------------------------|
---------------3--1--0-----0--|--1----L--1----3--1----3----|
------------------------2-----|----------------------------|
------------------------------|----------------------------|
------------------------------|----------------------------|
------------------------------|----------------------------|


  H        Q    Q    E  E     Q    E  Q    E  Q    Q     
---------------------------|-----------------------0----|
--5--------L------------1--|--3----L--3----1--3---------|
---------------------2-----|----------------------------|
---------------------------|----------------------------|
---------------------------|----------------------------|
---------------------------|----------------------------|


  Q    E  Q    E  E  E  E  E     Q    E  E  E  E  Q    Q     
--3----L--0-------------------|-----------------------------|
---------------3--1--0-----0--|--1----L--1--3--1--0---------|
------------------------2-----|------------------------0----|
------------------------------|-----------------------------|
------------------------------|-----------------------------|
------------------------------|-----------------------------|


  W                Q       Q    E  Q    E  Q    Q     
------------------------|---------------0-------3----|
------------------------|----------1-------3---------|
--2---------------------|--2----L--------------------|
------------------------|----------------------------|
------------------------|----------------------------|
------------------------|----------------------------|


  Q    E  Q    E  Q    Q       Q    E  Q    E  Q    Q     
--3----L--0-----------------|--1----L--0-----------------|
---------------1--3----1----|---------------3--4----4----|
----------------------------|----------------------------|
----------------------------|----------------------------|
----------------------------|----------------------------|
----------------------------|----------------------------|


  W                Q       Q    E  Q    E  Q    Q     
------------------------|---------------0-------3----|
--5---------------------|----------1-------3---------|
------------------------|--2----L--------------------|
------------------------|----------------------------|
------------------------|----------------------------|
------------------------|----------------------------|


  Q    E  Q    E  Q    Q       Q    E  Q    E  Q    Q     
--3----L--0-----------------|--1----L--0-----------------|
---------------1--3----1----|---------------3--1----0----|
----------------------------|----------------------------|
----------------------------|----------------------------|
----------------------------|----------------------------|
----------------------------|----------------------------|


  W                Q       Q    E  Q    E  Q    Q       W                Q     
------------------------|--1----L--0-----------------|------------------------|
------------------------|---------------3--1----0----|------------------------|
--2---------------------|----------------------------|--2---------------------|
------------------------|----------------------------|------------------------|
------------------------|----------------------------|------------------------|
------------------------|----------------------------|------------------------|


  Q    E  Q    E  Q    Q       Q    Q    H.             
--1----L--0-----------------|-------------------------||
---------------3--1----0----|-------------------------||
----------------------------|-------2-----------------||
----------------------------|-------------------------||
----------------------------|-------------------------||
----------------------------|-------------------------||



Chitara
     Q    E  Q    E  Q    Q       Q    E  Q    E  Q    Q     
E||--0----L--0----0--0----0----|--0----L--0----0--3----3----|
B||--1----L--1----1--1----1----|--1----L--1----1--0----0----|
G||--2----L--2----2--2----2----|--2----L--2----2--0----0----|
D||--2----L--2----2--2----2----|--2----L--2----2--0----0----|
A||--0----L--0----0--0----0----|--0----L--0----0--2----2----|
E||----------------------------|------------------3----3----|


  Q    E  Q    E  Q    Q       Q    E  Q    E  Q    Q     
--0----L--0----0--0----0----|--0----L--0----0--3----3----|
--1----L--1----1--1----1----|--1----L--1----1--0----0----|
--2----L--2----2--2----2----|--2----L--2----2--0----0----|
--2----L--2----2--2----2----|--2----L--2----2--0----0----|
--0----L--0----0--0----0----|--0----L--0----0--2----2----|
----------------------------|------------------3----3----|


  Q    E  Q    E  Q    Q       Q    E  Q    E  Q    Q     
--0----L--0----0--0----0----|--0----L--0----0--3----3----|
--1----L--1----1--1----1----|--1----L--1----1--0----0----|
--2----L--2----2--2----2----|--2----L--2----2--0----0----|
--2----L--2----2--2----2----|--2----L--2----2--0----0----|
--0----L--0----0--0----0----|--0----L--0----0--2----2----|
----------------------------|------------------3----3----|


  Q    E  Q    E  Q    Q       Q    E  Q    E  Q    Q     
--0----L--0----0--0----0----|--0----L--0----0--0----0----|
--1----L--1----1--1----1----|--1----L--1----1--0----0----|
--2----L--2----2--2----2----|--2----L--2----2--1----1----|
--2----L--2----2--2----2----|--2----L--2----2--2----2----|
--0----L--0----0--0----0----|--0----L--0----0--2----2----|
----------------------------|------------------0----0----|


    Q    E  Q    E  Q    Q       Q    E  Q    E  Q    Q     
|---0----L--0----0--3----3----|--0----L--0----0--1----1----|
|---1----L--1----1--0----0----|--1----L--1----1--1----1----|
|*--2----L--2----2--0----0----|--0----L--0----0--2----2----|
|*--2----L--2----2--0----0----|--2----L--2----2--3----3----|
|---0----L--0----0--2----2----|--3----L--3----3--3----3----|
|-------------------3----3----|--3-------3----3--1----1----|


  Q    E  Q    E  Q    Q       Q    E  Q    E  Q    Q     
--1----L--1----1--2----2----|--0----L--0----0--0----0----|
--3----L--3----3--4----4----|--0----L--0----0--0----0----|
--3----L--3----3--4----4----|--1----L--1----1--1----1----|
--3----L--3----3--4----4----|--2----L--2----2--2----2----|
--1----L--1----1--2----4----|--2----L--2----2--2----2----|
----------------------------|--0-------0----0--0----0----|


  Q    E  Q    E  Q    Q       Q    E  Q    E  Q    Q     
--0----L--0----0--3----3----|--0----L--0----0--1----1----|
--1----L--1----1--0----0----|--1----L--1----1--1----1----|
--2----L--2----2--0----0----|--0----L--0----0--2----2----|
--2----L--2----2--0----0----|--2----L--2----2--3----3----|
--0----L--0----0--2----2----|--3----L--3----3--3----3----|
------------------3----3----|--3-------3----3--1----1----|


  Q    E  Q    E  Q    Q       Q    E  Q    E  Q    Q       
--1----L--1----1--0----0----|--0----L--0----0--0----0-----||
--3----L--3----3--0----0----|--1----L--1----1--1----1-----||
--3----L--3----3--1----1----|--2----L--2----2--2----2----*||
--3----L--3----3--2----2----|--2----L--2----2--2----2----*||
--1----L--1----1--2----2----|--0----L--0----0--0----0-----||
------------------0----0----|-----------------------------||


   Q    E  Q    E  Q    Q       Q    E  Q    E  Q    Q     
---0----L--0----0--0----0----|--3----L--3----3--0----0----|
---1----L--1----1--1----1----|--0----L--0----0--1----1----|
*--2----L--2----2--2----2----|--0----L--0----0--0----0----|
*--2----L--2----2--2----2----|--0----L--0----0--2----2----|
---0----L--0----0--0----0----|--2----L--2----2--3----3----|
-----------------------------|--3-------3----3--3----3----|


  Q    E  Q    E  Q    Q       Q    E  Q    E  Q    Q     
--1----L--1----1--2----2----|--0----L--0----0--0----0----|
--3----L--3----3--4----4----|--0----L--0----0--0----0----|
--3----L--3----3--4----4----|--1----L--1----1--1----1----|
--3----L--3----3--4----4----|--2----L--2----2--2----2----|
--1----L--1----1--2----4----|--2----L--2----2--2----2----|
----------------------------|--0-------0----0--0----0----|


  Q    E  Q    E  Q    Q       Q    E  Q    E  Q    Q     
--0----L--0----0--0----0----|--3----L--3----3--0----0----|
--1----L--1----1--1----1----|--0----L--0----0--1----1----|
--2----L--2----2--2----2----|--0----L--0----0--0----0----|
--2----L--2----2--2----2----|--0----L--0----0--2----2----|
--0----L--0----0--0----0----|--2----L--2----2--3----3----|
----------------------------|--3-------3----3--3----3----|


  Q    E  Q    E  Q    Q       Q    E  Q    E  Q    Q     
--1----L--1----1--0----0----|--0----L--0----0--0----0----|
--3----L--3----3--0----0----|--1----L--1----1--1----1----|
--3----L--3----3--1----1----|--2----L--2----2--2----2----|
--3----L--3----3--2----2----|--2----L--2----2--2----2----|
--1----L--1----1--2----2----|--0----L--0----0--0----0----|
------------------0----0----|----------------------------|


  Q    E  Q    E  Q    Q       Q    E  Q    E  Q    Q     
--0----L--0----0--3----3----|--3----L--3----3--0----0----|
--1----L--1----1--0----0----|--0----L--0----0--1----1----|
--0----L--0----0--0----0----|--0----L--0----0--0----0----|
--2----L--2----2--0----0----|--0----L--0----0--2----2----|
--3----L--3----3--2----2----|--2----L--2----2--3----3----|
--3-------3----3--3----3----|--3-------3----3--3----3----|


  Q    E  Q    E  Q    Q       Q    E  Q    E  Q    Q     
--1----L--1----1--2----2----|--0----L--0----0--0----0----|
--3----L--3----3--4----4----|--0----L--0----0--0----0----|
--3----L--3----3--4----4----|--1----L--1----1--1----1----|
--3----L--3----3--4----4----|--2----L--2----2--2----2----|
--1----L--1----1--2----4----|--2----L--2----2--2----2----|
----------------------------|--0-------0----0--0----0----|


  Q    E  Q    E  Q    Q       Q    E  Q    E  Q    Q     
--0----L--0----0--3----3----|--3----L--3----3--0----0----|
--1----L--1----1--0----0----|--0----L--0----0--1----1----|
--0----L--0----0--0----0----|--0----L--0----0--0----0----|
--2----L--2----2--0----0----|--0----L--0----0--2----2----|
--3----L--3----3--2----2----|--2----L--2----2--3----3----|
--3-------3----3--3----3----|--3-------3----3--3----3----|


  Q    E  Q    E  Q    Q       Q    E  Q    E  Q    Q     
--1----L--1----1--0----0----|--0----L--0----0--0----0----|
--3----L--3----3--0----0----|--1----L--1----1--1----1----|
--3----L--3----3--1----1----|--2----L--2----2--2----2----|
--3----L--3----3--2----2----|--2----L--2----2--2----2----|
--1----L--1----1--2----2----|--0----L--0----0--0----0----|
------------------0----0----|----------------------------|


  Q    E  Q    E  Q    Q       Q    E  Q    E  Q    Q     
--0----L--0----0--3----3----|--0----L--0----0--1----1----|
--1----L--1----1--0----0----|--1----L--1----1--1----1----|
--2----L--2----2--0----0----|--0----L--0----0--2----2----|
--2----L--2----2--0----0----|--2----L--2----2--3----3----|
--0----L--0----0--2----2----|--3----L--3----3--3----3----|
------------------3----3----|--3-------3----3--1----1----|


  Q    E  Q    E  Q    Q       Q    E  Q    E  Q    Q     
--1----L--1----1--2----2----|--0----L--0----0--0----0----|
--3----L--3----3--4----4----|--0----L--0----0--0----0----|
--3----L--3----3--4----4----|--1----L--1----1--1----1----|
--3----L--3----3--4----4----|--2----L--2----2--2----2----|
--1----L--1----1--2----4----|--2----L--2----2--2----2----|
----------------------------|--0-------0----0--0----0----|


  Q    E  Q    E  Q    Q       Q    E  Q    E  Q    Q     
--0----L--0----0--3----3----|--0----L--0----0--1----1----|
--1----L--1----1--0----0----|--1----L--1----1--1----1----|
--2----L--2----2--0----0----|--0----L--0----0--2----2----|
--2----L--2----2--0----0----|--2----L--2----2--3----3----|
--0----L--0----0--2----2----|--3----L--3----3--3----3----|
------------------3----3----|--3-------3----3--1----1----|


  Q    E  Q    E  Q    Q       Q    E  Q    E  Q    Q     
--1----L--1----1--0----0----|--0----L--0----0--0----0----|
--3----L--3----3--0----0----|--1----L--1----1--1----1----|
--3----L--3----3--1----1----|--2----L--2----2--2----2----|
--3----L--3----3--2----2----|--2----L--2----2--2----2----|
--1----L--1----1--2----2----|--0----L--0----0--0----0----|
------------------0----0----|----------------------------|


  Q    E  Q    E  Q    Q       Q    E  Q    E  Q    Q     
--0----L--0----0--0----0----|--3----L--3----3--0----0----|
--1----L--1----1--1----1----|--0----L--0----0--1----1----|
--2----L--2----2--2----2----|--0----L--0----0--0----0----|
--2----L--2----2--2----2----|--0----L--0----0--2----2----|
--0----L--0----0--0----0----|--2----L--2----2--3----3----|
----------------------------|--3-------3----3--3----3----|


  Q    E  Q    E  Q    Q       Q    E  Q    E  Q    Q     
--1----L--1----1--2----2----|--0----L--0----0--0----0----|
--3----L--3----3--4----4----|--0----L--0----0--0----0----|
--3----L--3----3--4----4----|--1----L--1----1--1----1----|
--3----L--3----3--4----4----|--2----L--2----2--2----2----|
--1----L--1----1--2----4----|--2----L--2----2--2----2----|
----------------------------|--0-------0----0--0----0----|


  Q    E  Q    E  Q    Q       Q    E  Q    E  Q    Q     
--0----L--0----0--0----0----|--3----L--3----3--0----0----|
--1----L--1----1--1----1----|--0----L--0----0--1----1----|
--2----L--2----2--2----2----|--0----L--0----0--0----0----|
--2----L--2----2--2----2----|--0----L--0----0--2----2----|
--0----L--0----0--0----0----|--2----L--2----2--3----3----|
----------------------------|--3-------3----3--3----3----|


  Q    E  Q    E  Q    Q       Q    E  Q    E  Q    Q     
--1----L--1----1--0----0----|--0----L--0----0--0----0----|
--3----L--3----3--0----0----|--1----L--1----1--1----1----|
--3----L--3----3--1----1----|--2----L--2----2--2----2----|
--3----L--3----3--2----2----|--2----L--2----2--2----2----|
--1----L--1----1--2----2----|--0----L--0----0--0----0----|
------------------0----0----|----------------------------|


  Q    E  Q    E  Q    Q       Q    E  Q    E  Q    Q     
--0----L--0----0--3----3----|--3----L--3----3--0----0----|
--1----L--1----1--0----0----|--0----L--0----0--1----1----|
--0----L--0----0--0----0----|--0----L--0----0--0----0----|
--2----L--2----2--0----0----|--0----L--0----0--2----2----|
--3----L--3----3--2----2----|--2----L--2----2--3----3----|
--3-------3----3--3----3----|--3-------3----3--3----3----|


  Q    E  Q    E  Q    Q       Q    E  Q    E  Q    Q     
--1----L--1----1--2----2----|--0----L--0----0--0----0----|
--3----L--3----3--4----4----|--0----L--0----0--0----0----|
--3----L--3----3--4----4----|--1----L--1----1--1----1----|
--3----L--3----3--4----4----|--2----L--2----2--2----2----|
--1----L--1----1--2----4----|--2----L--2----2--2----2----|
----------------------------|--0-------0----0--0----0----|


  Q    E  Q    E  Q    Q       Q    E  Q    E  Q    Q     
--0----L--0----0--3----3----|--3----L--3----3--0----0----|
--1----L--1----1--0----0----|--0----L--0----0--1----1----|
--0----L--0----0--0----0----|--0----L--0----0--0----0----|
--2----L--2----2--0----0----|--0----L--0----0--2----2----|
--3----L--3----3--2----2----|--2----L--2----2--3----3----|
--3-------3----3--3----3----|--3-------3----3--3----3----|


  Q    E  Q    E  Q    Q       Q    E  Q    E  Q    Q     
--1----L--1----1--0----0----|--0----L--0----0--0----0----|
--3----L--3----3--0----0----|--1----L--1----1--1----1----|
--3----L--3----3--1----1----|--2----L--2----2--2----2----|
--3----L--3----3--2----2----|--2----L--2----2--2----2----|
--1----L--1----1--2----2----|--0----L--0----0--0----0----|
------------------0----0----|----------------------------|


  Q    E  Q    E  Q    Q       Q    E  Q    E  Q    Q     
--0----L--0----0--3----3----|--0----L--0----0--1----1----|
--1----L--1----1--0----0----|--1----L--1----1--1----1----|
--2----L--2----2--0----0----|--0----L--0----0--2----2----|
--2----L--2----2--0----0----|--2----L--2----2--3----3----|
--0----L--0----0--2----2----|--3----L--3----3--3----3----|
------------------3----3----|--3-------3----3--1----1----|


  Q    E  Q    E  Q    Q       Q    E  Q    E  Q    Q     
--1----L--1----1--2----2----|--0----L--0----0--0----0----|
--3----L--3----3--4----4----|--0----L--0----0--0----0----|
--3----L--3----3--4----4----|--1----L--1----1--1----1----|
--3----L--3----3--4----4----|--2----L--2----2--2----2----|
--1----L--1----1--2----4----|--2----L--2----2--2----2----|
----------------------------|--0-------0----0--0----0----|


  Q    E  Q    E  Q    Q       Q    E  Q    E  Q    Q     
--0----L--0----0--3----3----|--0----L--0----0--1----1----|
--1----L--1----1--0----0----|--1----L--1----1--1----1----|
--2----L--2----2--0----0----|--0----L--0----0--2----2----|
--2----L--2----2--0----0----|--2----L--2----2--3----3----|
--0----L--0----0--2----2----|--3----L--3----3--3----3----|
------------------3----3----|--3-------3----3--1----1----|


  Q    E  Q    E  Q    Q       Q    E  Q    E  Q    Q     
--1----L--1----1--0----0----|--0----L--0----0--0----0----|
--3----L--3----3--0----0----|--1----L--1----1--1----1----|
--3----L--3----3--1----1----|--2----L--2----2--2----2----|
--3----L--3----3--2----2----|--2----L--2----2--2----2----|
--1----L--1----1--2----2----|--0----L--0----0--0----0----|
------------------0----0----|----------------------------|


  Q    E  Q    E  Q    Q       Q    E  Q    E  Q    Q     
--0----L--0----0--0----0----|--3----L--3----3--0----0----|
--1----L--1----1--1----1----|--0----L--0----0--1----1----|
--2----L--2----2--2----2----|--0----L--0----0--0----0----|
--2----L--2----2--2----2----|--0----L--0----0--2----2----|
--0----L--0----0--0----0----|--2----L--2----2--3----3----|
----------------------------|--3-------3----3--3----3----|


  Q    E  Q    E  Q    Q       Q    E  Q    E  Q    Q     
--1----L--1----1--2----2----|--0----L--0----0--0----0----|
--3----L--3----3--4----4----|--0----L--0----0--0----0----|
--3----L--3----3--4----4----|--1----L--1----1--1----1----|
--3----L--3----3--4----4----|--2----L--2----2--2----2----|
--1----L--1----1--2----4----|--2----L--2----2--2----2----|
----------------------------|--0-------0----0--0----0----|


  Q    E  Q    E  Q    Q       Q    E  Q    E  Q    Q     
--0----L--0----0--0----0----|--3----L--3----3--0----0----|
--1----L--1----1--1----1----|--0----L--0----0--1----1----|
--2----L--2----2--2----2----|--0----L--0----0--0----0----|
--2----L--2----2--2----2----|--0----L--0----0--2----2----|
--0----L--0----0--0----0----|--2----L--2----2--3----3----|
----------------------------|--3-------3----3--3----3----|


  Q    E  Q    E  Q    Q       Q    E  Q    E  Q    Q     
--1----L--1----1--0----0----|--0----L--0----0--0----0----|
--3----L--3----3--0----0----|--1----L--1----1--1----1----|
--3----L--3----3--1----1----|--2----L--2----2--2----2----|
--3----L--3----3--2----2----|--2----L--2----2--2----2----|
--1----L--1----1--2----2----|--0----L--0----0--0----0----|
------------------0----0----|----------------------------|


  Q    E  Q    E  Q    Q       Q    E  Q    E  Q    Q     
--0----L--0----0--3----3----|--3----L--3----3--0----0----|
--1----L--1----1--0----0----|--0----L--0----0--1----1----|
--0----L--0----0--0----0----|--0----L--0----0--0----0----|
--2----L--2----2--0----0----|--0----L--0----0--2----2----|
--3----L--3----3--2----2----|--2----L--2----2--3----3----|
--3-------3----3--3----3----|--3-------3----3--3----3----|


  Q    E  Q    E  Q    Q       Q    E  Q    E  Q    Q     
--1----L--1----1--2----2----|--0----L--0----0--0----0----|
--3----L--3----3--4----4----|--0----L--0----0--0----0----|
--3----L--3----3--4----4----|--1----L--1----1--1----1----|
--3----L--3----3--4----4----|--2----L--2----2--2----2----|
--1----L--1----1--2----4----|--2----L--2----2--2----2----|
----------------------------|--0-------0----0--0----0----|


  Q    E  Q    E  Q    Q       Q    E  Q    E  Q    Q     
--0----L--0----0--3----3----|--3----L--3----3--0----0----|
--1----L--1----1--0----0----|--0----L--0----0--1----1----|
--0----L--0----0--0----0----|--0----L--0----0--0----0----|
--2----L--2----2--0----0----|--0----L--0----0--2----2----|
--3----L--3----3--2----2----|--2----L--2----2--3----3----|
--3-------3----3--3----3----|--3-------3----3--3----3----|


  Q    E  Q    E  Q    Q       Q    E  Q    E  Q    Q     
--1----L--1----1--0----0----|--0----L--0----0--0----0----|
--3----L--3----3--0----0----|--1----L--1----1--1----1----|
--3----L--3----3--1----1----|--2----L--2----2--2----2----|
--3----L--3----3--2----2----|--2----L--2----2--2----2----|
--1----L--1----1--2----2----|--0----L--0----0--0----0----|
------------------0----0----|----------------------------|


  Q    E  Q    E  Q    Q       Q    E  Q    E  Q    Q     
--0----L--0----0--3----3----|--0----L--0----0--1----1----|
--1----L--1----1--0----0----|--1----L--1----1--1----1----|
--2----L--2----2--0----0----|--0----L--0----0--2----2----|
--2----L--2----2--0----0----|--2----L--2----2--3----3----|
--0----L--0----0--2----2----|--3----L--3----3--3----3----|
------------------3----3----|--3-------3----3--1----1----|


  Q    E  Q    E  Q    Q       Q    E  Q    E  Q    Q     
--1----L--1----1--2----2----|--0----L--0----0--0----0----|
--3----L--3----3--4----4----|--0----L--0----0--0----0----|
--3----L--3----3--4----4----|--1----L--1----1--1----1----|
--3----L--3----3--4----4----|--2----L--2----2--2----2----|
--1----L--1----1--2----4----|--2----L--2----2--2----2----|
----------------------------|--0-------0----0--0----0----|


  Q    E  Q    E  Q    Q       Q    E  Q    E  Q    Q     
--0----L--0----0--3----3----|--0----L--0----0--1----1----|
--1----L--1----1--0----0----|--1----L--1----1--1----1----|
--2----L--2----2--0----0----|--0----L--0----0--2----2----|
--2----L--2----2--0----0----|--2----L--2----2--3----3----|
--0----L--0----0--2----2----|--3----L--3----3--3----3----|
------------------3----3----|--3-------3----3--1----1----|


  Q    E  Q    E  Q    Q       Q    E  Q    E  Q    Q     
--1----L--1----1--0----0----|--0----L--0----0--0----0----|
--3----L--3----3--0----0----|--1----L--1----1--1----1----|
--3----L--3----3--1----1----|--2----L--2----2--2----2----|
--3----L--3----3--2----2----|--2----L--2----2--2----2----|
--1----L--1----1--2----2----|--0----L--0----0--0----0----|
------------------0----0----|----------------------------|


  Q    E  Q    E  Q    Q       Q    E  Q    E  Q    Q     
--1----L--1----1--0----0----|--0----L--0----0--0----0----|
--3----L--3----3--0----0----|--1----L--1----1--1----1----|
--3----L--3----3--1----1----|--2----L--2----2--2----2----|
--3----L--3----3--2----2----|--2----L--2----2--2----2----|
--1----L--1----1--2----2----|--0----L--0----0--0----0----|
------------------0----0----|----------------------------|


  Q    E  Q    E  Q    Q       Q    Q    Q    Q    Q      
--1----L--1----1--0----0----|-------0----L----L----L----||
--3----L--3----3--0----0----|-------1----L----L----L----||
--3----L--3----3--1----1----|-------2----L----L---------||
--3----L--3----3--2----2----|-------2-------------------||
--1----L--1----1--2----2----|-------0-------------------||
------------------0----0----|-------0-------------------||



Bass
     Q    E  Q    E  Q    Q       Q    E  Q    E  Q    Q     
G||----------------------------|----------------------------|
D||----------------------------|----------------------------|
A||--0----L--0----0--0----0----|--0----L--0----0------------|
E||----------------------------|------------------3----3----|


  Q    E  Q    E  Q    Q       Q    E  Q    E  Q    Q     
----------------------------|----------------------------|
----------------------------|----------------------------|
--0----L--0----0--0----0----|--0----L--0----0------------|
----------------------------|------------------3----3----|


  Q    E  Q    E  Q    Q       Q    E  Q    E  Q    Q     
----------------------------|----------------------------|
----------------------------|----------------------------|
--0----L--0----0--0----0----|--0----L--0----0------------|
----------------------------|------------------3----3----|


  Q    E  Q    E  Q    Q       Q    E  Q    E  Q    Q     
----------------------------|----------------------------|
----------------------------|----------------------------|
--0----L--0----0--0----0----|--0----L--0----0------------|
----------------------------|------------------4----4----|


    Q    E  Q    E  Q    Q       Q    E  Q    E  Q    Q     
|-----------------------------|----------------------------|
|*----------------------------|----------------------------|
|*--0----L--0----0------------|--3----L--3----3------------|
|-------------------3----3----|------------------1----1----|


  Q    E  Q    E  Q    Q       Q    E  Q    E  Q    Q     
----------------------------|----------------------------|
----------------------------|---------------2------------|
----------1----1--2----2----|----------2-----------------|
--1----L--------------------|--0----L----------0----0----|


  Q    E  Q    E  Q    Q       Q    E  Q    E  Q    Q     
----------------------------|----------------------------|
----------------------------|----------------------------|
--0----L--0----0------------|--3----L--3----3------------|
------------------3----3----|------------------1----1----|


  Q    E  Q    E  Q    Q       Q    E  Q    E  Q    Q                        
----------------------------|------------------2----------||--------|-------|
--3----L--2----0------------|---------------2------------*||*-------|-------|
------------------3----2----|--0----L--0-------0----0----*||*-------|-------|
----------------------------|-----------------------------||--------|-------|


          Q    Q    Q    Q     Q       Q    E  Q    E  Q    Q     
-------|----------------------------|----------------------------|
-------|----------------------------|----------------------------|
-------|----------------------x----|--0----L--0----2--3----0----|
-------|----------------------------|----------------------------|


  Q    E  Q    E  Q    Q       Q    E  Q    E  Q    Q     
----------------------------|----------------------------|
----------------------------|--3----L--2----0------------|
------------------3----3----|------------------3----2----|
--3----L--3----3------------|----------------------------|


  Q    E  Q    E  Q    Q       Q    E  Q    E  Q    Q     
------------------2---------|----------------------------|
---------------2------------|----------------------------|
--0----L--0-------0----0----|--3----L--3----3--5----5----|
----------------------------|----------------------------|


  Q    E  Q    E  Q    Q       Q    E  Q    E  Q    Q     
---------------0------------|----------------------------|
----------------------------|----------------------------|
------------------3----3----|----------1----1--2----2----|
--3----L--3-----------------|--1----L--------------------|


  Q    E  Q    E  Q    Q       Q    E  Q    E  Q    Q     
----------------------------|----------------------------|
---------------2------------|----------------------------|
----------2-----------------|--3----L--3----3--5----5----|
--0----L----------0----0----|----------------------------|


  Q    E  Q    E  Q    Q       Q    E  Q    E  Q    Q     
---------------0------------|----------------------------|
----------------------------|----------------------------|
------------------3----3----|--1----L--1----1-------2----|
--3----L--3-----------------|------------------0---------|


  Q    E  Q    E  Q    Q       Q    E  Q    E  Q    Q     
----------------------------|----------------------------|
----------------------------|----------------------------|
--0----L--0----0--0----0----|--0----L--0----0------------|
----------------------------|------------------3----3----|


  Q    E  Q    E  Q    Q       Q    E  Q    E  Q    Q     
----------------------------|----------------------------|
----------------------------|----------------------------|
--3----L--3----3------------|----------1----1--2----2----|
------------------1----1----|--1----L--------------------|


  Q    E  Q    E  Q    Q       Q    E  Q    E  Q    Q     
----------------------------|----------------------------|
---------------2------------|----------------------------|
----------2-----------------|--0----L--0----0------------|
--0----L----------0----0----|------------------3----3----|


  Q    E  Q    E  Q    Q       Q    E  Q    E  Q    Q     
----------------------------|----------------------------|
----------------------------|--3----L--2----0------------|
--3----L--3----3------------|------------------3----2----|
------------------1----1----|----------------------------|


  Q    E  Q    E  Q    Q                             
------------------2---------|-------|-------|-------|
---------------2------------|-------|-------|-------|
--0----L--0-------0----0----|-------|-------|-------|
----------------------------|-------|-------|-------|


  Q    Q    Q    Q     Q       Q    E  Q    E  Q    Q     
----------------------------|----------------------------|
----------------------------|----------------------------|
----------------------x----|--0----L--0----2--3----0----|
----------------------------|----------------------------|


  Q    E  Q    E  Q    Q       Q    E  Q    E  Q    Q     
----------------------------|----------------------------|
----------------------------|--3----L--2----0------------|
------------------3----3----|------------------3----2----|
--3----L--3----3------------|----------------------------|


  Q    E  Q    E  Q    Q       Q    E  Q    E  Q    Q     
------------------2---------|----------------------------|
---------------2------------|----------------------------|
--0----L--0-------0----0----|--3----L--3----3--5----5----|
----------------------------|----------------------------|


  Q    E  Q    E  Q    Q       Q    E  Q    E  Q    Q     
---------------0------------|----------------------------|
----------------------------|----------------------------|
------------------3----3----|----------1----1--2----2----|
--3----L--3-----------------|--1----L--------------------|


  Q    E  Q    E  Q    Q       Q    E  Q    E  Q    Q     
----------------------------|----------------------------|
---------------2------------|----------------------------|
----------2-----------------|--3----L--3----3--5----5----|
--0----L----------0----0----|----------------------------|


  Q    E  Q    E  Q    Q       Q    E  Q    E  Q    Q     
---------------0------------|----------------------------|
----------------------------|----------------------------|
------------------3----3----|--1----L--1----1-------2----|
--3----L--3-----------------|------------------0---------|


  Q    E  Q    E  Q    Q       Q    E  Q    E  Q    Q     
----------------------------|----------------------------|
----------------------------|----------------------------|
--0----L--0----0--0----0----|--0----L--0----0------------|
----------------------------|------------------3----3----|


  Q    E  Q    E  Q    Q       Q    E  Q    E  Q    Q     
----------------------------|----------------------------|
----------------------------|----------------------------|
--3----L--3----3------------|----------1----1--2----2----|
------------------1----1----|--1----L--------------------|


  Q    E  Q    E  Q    Q       Q    E  Q    E  Q    Q     
----------------------------|----------------------------|
---------------2------------|----------------------------|
----------2-----------------|--0----L--0----0------------|
--0----L----------0----0----|------------------3----3----|


  Q    E  Q    E  Q    Q       Q    E  Q    E  Q    Q     
----------------------------|----------------------------|
----------------------------|--3----L--2----0------------|
--3----L--3----3------------|------------------3----2----|
------------------1----1----|----------------------------|


  Q    E  Q    E  Q    Q                             
------------------2---------|-------|-------|-------|
---------------2------------|-------|-------|-------|
--0----L--0-------0----0----|-------|-------|-------|
----------------------------|-------|-------|-------|


  Q    Q    Q    Q     Q       Q    E  Q    E  Q    Q     
----------------------------|----------------------------|
----------------------------|----------------------------|
----------------------x----|--0----L--0----2--3----0----|
----------------------------|----------------------------|


  Q    E  Q    E  Q    Q       Q    E  Q    E  Q    Q     
----------------------------|----------------------------|
----------------------------|--3----L--2----0------------|
------------------3----3----|------------------3----2----|
--3----L--3----3------------|----------------------------|


  Q    E  Q    E  Q    Q       Q    E  Q    E  Q    Q     
------------------2---------|----------------------------|
---------------2------------|----------------------------|
--0----L--0-------0----0----|--3----L--3----3--5----5----|
----------------------------|----------------------------|


  Q    E  Q    E  Q    Q       Q    E  Q    E  Q    Q     
---------------0------------|----------------------------|
----------------------------|----------------------------|
------------------3----3----|----------1----1--2----2----|
--3----L--3-----------------|--1----L--------------------|


  Q    E  Q    E  Q    Q       Q    E  Q    E  Q    Q     
----------------------------|----------------------------|
---------------2------------|----------------------------|
----------2-----------------|--3----L--3----3--5----5----|
--0----L----------0----0----|----------------------------|


  Q    E  Q    E  Q    Q       Q    E  Q    E  Q    Q     
---------------0------------|----------------------------|
----------------------------|----------------------------|
------------------3----3----|--1----L--1----1-------2----|
--3----L--3-----------------|------------------0---------|


  Q    E  Q    E  Q    Q       Q    E  Q    E  Q    Q     
----------------------------|----------------------------|
----------------------------|----------------------------|
--0----L--0----0--0----0----|--0----L--0----0------------|
----------------------------|------------------3----3----|


  Q    E  Q    E  Q    Q       Q    E  Q    E  Q    Q     
----------------------------|----------------------------|
----------------------------|----------------------------|
--3----L--3----3------------|----------1----1--2----2----|
------------------1----1----|--1----L--------------------|


  Q    E  Q    E  Q    Q       Q    E  Q    E  Q    Q     
----------------------------|----------------------------|
---------------2------------|----------------------------|
----------2-----------------|--0----L--0----0------------|
--0----L----------0----0----|------------------3----3----|


  Q    E  Q    E  Q    Q       Q    E  Q    E  Q    Q     
----------------------------|----------------------------|
----------------------------|--3----L--2----0------------|
--3----L--3----3------------|------------------3----2----|
------------------1----1----|----------------------------|


  Q    E  Q    E  Q    Q       Q    E  Q    E  Q    Q     
------------------2---------|----------------------------|
---------------2------------|--3----L--2----0------------|
--0----L--0-------0----0----|------------------3----2----|
----------------------------|----------------------------|


  Q    E  Q    E  Q    Q       Q    E  Q    E  Q    Q     
------------------2---------|----------------------------|
---------------2------------|--3----L--2----0------------|
--0----L--0-------0----0----|------------------3----2----|
----------------------------|----------------------------|


  Q    H        H          
-------------------------||
-------------------------||
-------0-----------------||
-------------------------||
  • rudolf_iuliu
    11 martie 2010 13:39
    textul se cânta cu litere de tipar?
  • oancius
    2 martie 2010 17:35
    nu prea ma pricep la desifrat orice tab :D ce in seamna L ?
  • rasgeado
    6 iunie 2008 10:11
    Subscriu in ceea ce priveste calitatea tabului.