Phoenix - Apocalipsa

  • (5 voturi)
  • Contribuție:  Trooper
  • Ultima actualizare: 23.04.2008
Intro: 

e-------------------------|-----------------------|-------------------------|----------------------|
B-------------------------|-----------------------|-------------------------|----------------------|
G-----7----5---------5-7~-|-----7----5------------|-----7----5---------5-7~-|-----7----5-----------|
D---7--(7)---5---7-5-3-5~-|---7--(7)---5---7-5-5--|---7--(7)---5---7-5-3-5~-|---7--(7)---5---7-5-7-|
A-5------------3-5-3------|-5------------3-5-3-5--|-5------------3-5-3------|-5------------3-5-3-5-|
E-------------------------|--------------------3--|-------------------------|----------------------|


e-------------------------|-----------------------|-------------------------|-------------------|
B-------------------------|-----------------------|-------------------------|-------------------|
G-----7----5---------5-7~-|-----7----5------------|-----7----5---------5-7~-|-----7----5--------|
D---7--(7)---5---7-5-3-5~-|---7--(7)---5---7-5-5--|---7--(7)---5---7-5-3-5~-|---7--(7)---5---7~-|
A-5------------3-5-3------|-5------------3-5-3-5--|-5------------3-5-3------|-5------------3-5~-|
E-------------------------|--------------------3--|-------------------------|-------------------|

Strofa:

  C5  D5  G5  A5  A5                  C5  D5  G5  A5  A5
e---------------|-------------------|---------------|-------------------|
B---------------|-------------------|---------------|-------------------|
G---------------|-------------------|---------------|-------------------|
D-5-5-7-7-------|-------------------|-5-5-7-7-------|-------------------|
A-3-3-5-5-5-5-7-|-7-7-7-7-7-7-7-7-7-|-3-3-5-5-5-5-7-|-7-7-7-7-7-7-7-7-7-|
E---------3-3-5-|-5-5-5-5-5-5-5-5-5-|---------3-3-5-|-5-5-5-5-5-5-5-5-5-|

  C5  D5  F5  G5  G5                  F5  G5   C5 B5  A5
e---------------|-------------------|---------------|-------------------|
B---------------|-------------------|---------------|-------------------|
G---------------|-------------------|---------------|-------------------|
D-5-5-7-7-------|-------------------|---------x-5-4-|-------------------|
A-3-3-5-5-3-3-5-|-5-5-5-5-5-5-5-5-5-|-3-3-5-5-x-3-2-|-7-7-7-7-7-7-7-7-7-|
E---------1-1-3-|-3-3-3-3-3-3-3-3-3-|-1-1-3-3-------|-5-5-5-5-5-5-5-5-5-|


C5 D5 G5 A5 A5
          Negru ca smoala-i cerul, 
C5 D5 G5 A5 A5          
          negre dihanii vin
C5 D5 F5 G5 G5
          Moartea e-n mii de feluri, 
F5 G5 C5 B5 A5           
             negru si venin
C5 D5 G5 A5 A5
          Oamenii-lupi la panda, 
C5 D5 G5 A5 A5          
          oamenii-serpi in zbor,
C5 D5 F5 G5 G5
          Pestera nu-i s’ascunda, 
F5 G5 C5 B5 A5
          de furia fiarelor.

Refren:
D5           Bb5      C5       D5
Apocalipsa, mortii se-ntorc in vii
         Bb5    C5  F5
Ceasul negru al umbrelor,
       Bb     C5    A5
Lumea-ntreaga de stihii

D5              Bb5   C5     D5
Apocalipsa, cu cetele de strigoi
        F5      D5 C5 A5
Si cu codrii intregi de cruci
     Bb  C5  A5  
Judecata de apoi


e-------------------------|-----------------------|-------------------------|----------------------|
B-------------------------|-----------------------|-------------------------|----------------------|
G-----7----5---------5-7~-|-----7----5------------|-----7----5---------5-7~-|-----7----5-----------|
D---7--(7)---5---7-5-3-5~-|---7--(7)---5---7-5-5--|---7--(7)---5---7-5-3-5~-|---7--(7)---5---7-5-7-|
A-5------------3-5-3------|-5------------3-5-3-5--|-5------------3-5-3------|-5------------3-5-3-5-|
E-------------------------|--------------------3--|-------------------------|----------------------|


e-------------------------|-----------------------|-------------------------|-------------------|
B-------------------------|-----------------------|-------------------------|-------------------|
G-----7----5---------5-7~-|-----7----5------------|-----7----5---------5-7~-|-----7----5--------|
D---7--(7)---5---7-5-3-5~-|---7--(7)---5---7-5-5--|---7--(7)---5---7-5-3-5~-|---7--(7)---5---7~-|
A-5------------3-5-3------|-5------------3-5-3-5--|-5------------3-5-3------|-5------------3-5~-|
E-------------------------|--------------------3--|-------------------------|-------------------|

Caii se-avanta-n lupta, sulite trec prin nori
Zarea-i in doua rupta, vreme e doar sa mori
Sabii udate-n sange, valuri de foc din cer,
Luna din luna fuge, iarba e verde-fier

Refren


e-------------------------|-----------------------|-------------------------|----------------------|
B-------------------------|-----------------------|-------------------------|----------------------|
G-----7----5---------5-7~-|-----7----5------------|-----7----5---------5-7~-|-----7----5-----------|
D---7--(7)---5---7-5-3-5~-|---7--(7)---5---7-5-5--|---7--(7)---5---7-5-3-5~-|---7--(7)---5---7-5-7-|
A-5------------3-5-3------|-5------------3-5-3-5--|-5------------3-5-3------|-5------------3-5-3-5-|
E-------------------------|--------------------3--|-------------------------|----------------------|


e-------------------------|-----------------------|-------------------------|-------------------|
B-------------------------|-----------------------|-------------------------|-------------------|
G-----7----5---------5-7~-|-----7----5------------|-----7----5---------5-7~-|-----7----5--------|
D---7--(7)---5---7-5-3-5~-|---7--(7)---5---7-5-5--|---7--(7)---5---7-5-3-5~-|---7--(7)---5---7~-|
A-5------------3-5-3------|-5------------3-5-3-5--|-5------------3-5-3------|-5------------3-5~-|
E-------------------------|--------------------3--|-------------------------|-------------------|
 

Solo

Refren X 2


e-------------------------|-----------------------|-------------------------|----------------------|
B-------------------------|-----------------------|-------------------------|----------------------|
G-----7----5---------5-7~-|-----7----5------------|-----7----5---------5-7~-|-----7----5-----------|
D---7--(7)---5---7-5-3-5~-|---7--(7)---5---7-5-5--|---7--(7)---5---7-5-3-5~-|---7--(7)---5---7-5-7-|
A-5------------3-5-3------|-5------------3-5-3-5--|-5------------3-5-3------|-5------------3-5-3-5-|
E-------------------------|--------------------3--|-------------------------|----------------------|


e-------------------------|-----------------------|-------------------------|-------------------|
B-------------------------|-----------------------|-------------------------|-------------------|
G-----7----5---------5-7~-|-----7----5------------|-----7----5---------5-7~-|-----7----5--------|
D---7--(7)---5---7-5-3-5~-|---7--(7)---5---7-5-5--|---7--(7)---5---7-5-3-5~-|---7--(7)---5---7~-|
A-5------------3-5-3------|-5------------3-5-3-5--|-5------------3-5-3------|-5------------3-5~-|
E-------------------------|--------------------3--|-------------------------|-------------------|