Phoenix - Ciclul Anotimpurilor - Primavara (intro)

Veti observa caci am scris numai partile de guitara, si partea de bass din
mijloc. Cintecul este in C, sau Do, cum alti prefera sa-i zica. Success!

||-----------------------|-----
||-----------------------|----
||----5--3-2---2---------|-------
||-----------5----3--5-5-|-x2---
||-3---------------------|-----
||-----------------------|--------

------------------------------------------------ ||
-------------------------------------------------||---
------------2-------------------2----------------||--
----2--3--5----3--5-5----2--3-5----3---2h3p2-0---||- de la-nceput si 
--3--------------------3-------------------------||--pin-aici se repeta
-------------------------------------------------||-inc-o data

apres cette:
|------------------------------------------------ 
|---------------------------------------------------
|--------------------------------------------------
|-0-2-3-2-0---3-0-2---0---0-2-3-2-------------------
|-------------------3--------------0--0-----3--0---------
|---------------------------------------3-3---------------

------------------------------------------------ |
-------------------------------------------------|--
-------------------------------------------------|-
-0-2-3-2-0---3-0-2---0---0-2-3-2-------0-0-------|-- iar se repeta de 
-------------------3--------------3--3-------0---|     la "apres cette" 
-------------------------------------------3-----|-------pin-aici


et apres cette vous allez entendre le bass:
(in realmente, bassul este cu vreo 2 octave mai jos)
   |------------------------------------          |
   |-------------------------------------         | (bassul se repeta
   |--2-0------------------------------------     |       si el)
   |------3-2-0---0--5-5-----5-3-2-0-------0-0----|----
   |---------------------------------3---3-----   |
   |-----------------------------------------     |


Dupaia:
        |--5-3------------3--33-1-0-----------------|
        |------6-5--3--3--3---------3-1---1--3--3---|
        |-----------------0------------------2------| deux fois
        |------------------------------------0------|
        |-------------------------------------------|
        |-------------------------------------------|
apoi, peste cea de sus, se cinta:
        |--1-0------------00--0---------------------|-
        |------3-1--3--3--------3-1-0---------------|------
        |-----------------------------2---0--2--2---|-----
        |-------------------------------------------|
        |-------------------------------------------|
        |-------------------------------------------|


   se repeta de citeva ori, apoii se gata cu asta:
        |--1-0------------00--0---------------------|-
        |------3-1--3--3--------3-1-0---------------|------
        |-----------------------------2--------(2)--|-----
        |-------------------------------------------|
        |-----------------------------3--------(3)--|
        |-------------------------------------------|


Poate vre-un comment sau doua daca ii bine sau rau.....

Transpunerile de pe acest site reprezintă viziunea personală a utilizatorilor asupra pieselor.
5cc30fbcd7f49ebeb2de40d74af5d6e2
f7e9d1d2-ebba-44ba-8198-e810bddf71a6