Phoenix - Ciclul anotimpurilor - VARA

  • (1 voturi)
  • Contribuție:  tudor americanu
  • Ultima actualizare: 01.06.2008
OK. Asta o fost simplu, vazind ca nimeni n-a avut curaju sa puna unu 
calumea, da hey, nu dau vina pe nimeni, si mie mi-o luat o ora. Vreau 
commenturi, si daca este unu mic, ca sa vad ce credeti de varianta mea. 

INTRO
guitara
     e------------------------------   - -----------------0--------2---3-- 
     B----------------5-2-----3--0--   - --------0--1--------2----------
     G--------4-5--2------2---------   -----0----------2--------2-------  
     D----5-4--------------------  -   --------4------------------- --     
     A--2------------------------- -   - 2----------------------------
     E---------------------------  -   ------------------------------
                                         ^  ^  ^ ^  ^  ^  ^  ^  ^  ^   ^
Bass         (impreuna cu gtra)          |  |  | |  |  |  |  |  |  |   |
     G------------------------------   -----------------------------------
     D------------------------------   ------------------------------------
     A------------------------------   --------2-------------------0---2---
     E------------------------------   --0h-2----0--1--2--5--2--0----------
___________________________________________________________________________

GTR                E     D
-------------------0----2-------
--E----G---A-------0----3-------
-------------------1----2--------
-222--555--77-7----2----0------
-222--555--77-7----2----0------
-000--333--55-5----0-----------

BAS                                    E   G   A      D   B
---------------------------          ----------------------------
----------------------------   ori   --------------------------
---------------------5-------         --7---5--4-----------------
-000--333---5-5--5h7---7----         --0---0----7-5---5-7-5-3--
__________________________________________________________________________

E  G  A  A    E    D     E G  A               
Doooorm, lanu-rile coapte dooorm
A        A  D
Soaptele de dor
E  G A   A    E     D      E  G  A       
Liiiin, curge peste noapte muuuuut, 
A          D
Visul cala-tor.

G           C    G  D 
Doarme toro-pit  pa-mintul
G          A         D    
Si viseaza ploaia si vintul
G            C      G  D  
Buzele-i sea-dinc  cra-apate
G             A         D
Apa-o cauta-n vis, inse-tate
__________________________________________________________________________

si tot asa pina cind se aude iara INTRO-ul. 
Apoi Bass Solo...apoi ami ascultati piesa
6Ld5REUUAAAAAA1PBEDya2BDGnf5rYKeKnmYm4Cz
0341ffcacc94a33be5034f2eb043df6a