Phoenix - Ciocarlia

Band:Phoenix
Song: Ciocarlia


Intro:
e------------------------------------------| 
B------------------------------------------|  
G-6-7-9-9-9-9-11-6-7-9---------6-6^9-7-6---|X2
D----------------------7-6-7-9----------9-9|  
A-----------------------------------------7|  
E------------------------------------------|  


----------------------|---------------------------------------------|
----------------------|--------------------------/7-5-7-------------|
-2-1-2-4-4/6-9-7-6-9-9|1^2-2^4-4^6-4-2-----------------6-7-4-4^6^4-2|
---------------------7|----------------2-4^6^4^2--------------------|
----------------------|---------------------------------------------|
----------------------|---------------------------------------------|



Bridge:
e------------------------|
B------------------------|
G-9--9-9-9--9-9-9--9-9-9-|
D-9--9-9-9--9-9-9--9-9-9-|
A-7--7-7-7--7-7-7--7-7-7-|
E------------------------|

Riff1:

e---------------------------------|  
B---------------------------------|  
G---------------------------------|  
D-9-11-11-9-11-11-9-11-11-9^11^9-7|X3
A---------------------------------|  
E---------------------------------|  



---------------|------------------------------------  |
---------------|------------------------------------  |
-9-------------|-9----------------11-9--------------X2|
--11-9-9^11^9-7|---11-9-9^11^9-12------11-9-9^11^9-7  |
---------------|------------------------------------  |
---------------|------------------------------------  |


Se aude doar bassul 
dupa care intra Cristi Gram cu :

e------------------------------|-3--3--3--3--3--3--3-3-3  
B------------------------------|-3--3--3--3--3--3--3-3-3  
G------------------------------|-4--4--4--4--4--4--4-4-4 nush exact de cate ori
D------------------------------|-5--5--5--5--5--5--5-5-5   ..dupa ureche :D 
A------------------------------|-5--5--5--5--5--5--5-5-5  
E------------------------------|-3--3--3--3--3--3--3-3-3 


Covaci canta faza asta (Gram canta acelashi lucru 
numai ca are rifful incepand cu 12-le de pe e)

e-------------------------------------------------------|
B-------------------------------------------------------|
G-/9-/9-9-8-9-11-9-8-9-8-9-11-9-8-9-8-9-11-9-8-9-8-9-11-|
D-------------------------------------------------------|
A-------------------------------------------------------|
E-------------------------------------------------------|


------------------------------------------|
------------------------------------------|
-7-6-7-9-7-6-7-6-7-9-7-6-7-6-7-9-7-6-7-6-7|
------------------------------------------|
------------------------------------------|
------------------------------------------|


e--------------------------------|----------------------------------------------------|
B--------------------------------|----------------------------------------------------|
G-10-9-7-10-9-7-10-9-7-10-9-7-7/9|9------------9------------9------------9------------|
D--------------------------------|-7-7-7^9^10^7-7-7-7^9^10^7-7-7-7^9^10^7-7-7-7^9^10^7|
A--------------------------------|----------------------------------------------------|
E--------------------------------|----------------------------------------------------|


e-----------------------------------------------------------|------------------------|
B-----------------------------------------------------------|------------------------|
G-10-9-10-12-10-9-10-9-10-12-10-9-10-9-10-12-10-9-10-9-10-12|-/14-12-11-9-/14-12-11-9|
D-----------------------------------------------------------|------------------------|
A-----------------------------------------------------------|------------------------|
E-----------------------------------------------------------|------------------------|


e-----------------------------------------------------------------|
B-9-9^11^9--------9-9^11^9--------9-9^11^9--------9-9^11^9--------|
G---------11^12^11--------11^12^11--------11^12^11--------11^12^dap11|
D-----------------------------------------------------------------|
A-----------------------------------------------------------------|
E-----------------------------------------------------------------|


e------------------------------------------------|
B------------------------------------------------|
G-/9-/9-7-6-7-9-7-6-7-6-7-9-7-6-7-6-7-9-7-6-7-6-7|
D------------------------------------------------|
A------------------------------------------------|
E------------------------------------------------|


-------------------------------------------------------|
-------------------------------------------------------|
-------------------------------------------------------|
12-11-9-9-9-9-12-11-9-9-9-9-12-11-9-9-9-9-12-11-9-9-9-9|
-------------------------------------------------------|
-------------------------------------------------------|



e--------------------------------------------------|
B-------------------------------------------5-5-7-7|
G----------------------------------------7-7-------|
D--------------------------------------------------|ultimele 6 nute nush exatc care sunt 
A-----5-7--------5-5-7-7---------5-5-7-7-----------|..astea pe care le-am pus 
E-4-7-----4-4-7-7--------4-4-7-7-------------------|  presupun ca sunt dar nush sigur


e-0-5-0-5-0-5-0-7-0-7-0-5-0-9-5-0-5-0-5-0-5-0-7-0-7-0-4-0-5-0-|
B-------------------------------------------------------------|
G-------------------------------------------------------------|
D-------------------------------------------------------------|
A-------------------------------------------------------------|
E-------------------------------------------------------------|

e-0-4-0-7-0-7-0-4-0-5-0-4-0-7-0-4|-0-4-0-7-0-7-0-4-0-5-2^4^2-0-|
B--------------------------------|-----------------------------|
G--------------------------------|-----------------------------|
D--------------------------------|-----------------------------|
A--------------------------------|-----------------------------|
E--------------------------------|-----------------------------|


                                                            

in timp ce Gram tine UN TIMP ANUME PE SOL...SE PRINDE USHOR CAND ASCULTZI MELODIA:

e-----------------|
B-----------------|
G-----------------|
D-5--5-5-5--5-5-5-|
A-5--5-5-5--5-5-5-|
E-3--3-3-3--3-5-5-|

Apogeu:

e------------------|
B-9---9---11---11--|
G--9---9----11---11|
D------------------|
A------------------|
E------------------|

That's all folks
Tab made by The Trooper

Transpunerile de pe acest site reprezintă viziunea personală a utilizatorilor asupra pieselor.
097838c4e8542e2bb07a971465a86708
f7e9d1d2-ebba-44ba-8198-e810bddf71a6