Phoenix - Fata verde

intro:

e|--7---5-------------------7---5--------------|
B|----8-----7h8p7p5---5-5-----8----7h8p7p5---5-|
G|------------------7----------------------7---|
D|---------------------------------------------|
A|---------------------------------------------|
E|---------------------------------------------|

e|--7---5------------------7------------------|
B|----8----7h8p7p5---5-5-----8--7p5---5-------|
G|-----------------7----------------7---------|
D|--------------------------------------------|
A|--------------------------------------------|
E|--------------------------------------------|

intro:  Em7 Em6 Em5+ Em 

Em            G     D
Fata verde cu parul padure
Fata verde cu parul padure
Simti cu privirea lor vrea sa te fure
 
 Ref:
      C           G   D    Em
        Noaptea-n ei tese ie
        Zburatorii ca sa vie
        Noaptea-n ei tese ie
        Nimeni urma sa le-o stie
 

Fata verde ei te saruta
Cu privirea lor cea muta
Ochii negrii, ochi de tigani
 
 Refr:
 
 Bridge:
        D             G
        Umezi sunt de dor
          C           D
        Si-al lor vis plin de zbor
        Noapte ei se scalda 
        In sclipiri ca de salba 
           C           D
        In sclipiri de salba
 
 
Fata verde cu parul padure
Fata verde cu parul padure
Simti cum privirea lor vrea sa te fure 
 
        Ref:

Transpunerile de pe acest site reprezintă viziunea personală a utilizatorilor asupra pieselor.
496dd2b0584600a4c1be5b75fc2ebfdb
f7e9d1d2-ebba-44ba-8198-e810bddf71a6