Phoenix - Filip si cerbul (bass)

  • (3 voturi)
  • Contribuție:  anonime
Intro chitara 
Formula 1 
G--------------------------------------- ------------------------------------ 
D---------------------------5----------- ---------------------------5-------- 
A--7-----7-----7------5--7-----7--5----- --7-----7-----7------5--7-----5--7-- 
E-----0-----0-----0------------------7-- -----0-----0-----0------------------ 

Formula 2(riff-ul principal) 
G--------------------------------------------------------------------- 
D--------------------------------------------------------------------- 
A-----------2------------2-2------------2-----------2-----------2-2--- 
E--0--3--0------0--3--0--------0--3--0-----0--3--0-----0--3--0-------- 

Formula 3(armonia pt.versuri) 
improvizatiile dupa versuri 
G---------------------------- ------------------|-------------------------- 
D---------------------------- --5-----5h7p5-----|-----9-----7--6--4-------- 
A-----5--7-7-7-------7-7-7--- -----7---------7--|--7-----7-----------7----- 
E--0--------------0---------- ------------------|-------------------------- 
Un cerb trecea,Cerbul Soare 

REFREN 
G-------------------------------------------------------------- 
D-------------------------------------------------------------- 
A--7--5--3-----5--7-7-7-7-7-7-7-7---5-5-5---------------------- 
E-----------3-------------------------------5-5-5---3-3-3---3-- 
Cerbule,cerbule bunule.... 

G----------------|--------------- 
D----------------|--------------- 
A-----3-2-----0--|--7--5--------- 
E--3-------3-----|--------3--5--- 
albule cerb 

Formula 5(armonia pt.solo de chitara) 

G-----------------------------------|--9-9-9-9-9-9-9-9-9-9-9-9--7-------------- 
D-----------------------------------|------------------------------9--7-------- 
A-------7-------9-------10-------12-|------------------------------------10--7- 
E--0-0-----0-0-----0-0------0-0-----|------------------------------------------ 

Formula 6(final) 

G---------------------------------------------------------------- ------------- 
D---------------------------------------------------------2------ -----0h2----- 
A--7-7-7-7-7-7-----5-5-5-5-5-5---4-4-4-4-4---2-2-2-2---5-----7--- --2---------- 
E---------------------------------------------------------------- ----------0--