Phoenix - Iarna (bass)

  • Contribuție:  udar
Este linia de bass facuta de mine pentru a participa la un concurs.
Merge cu varianta de chitara(cu capodastru pe tasta II) pe care o voi posta.


G|------------------------------
D|--------------------2--2-2----
A|--0-0---0---0---0-------------
E|----------------------------2-
   Iarna mi-a pus pe la ferestre

G|-------------
D|-------------
A|-2-----------
E|--------2----
   Flori ,flori
 

G|------------------------
D|-2----2---2--2----------
A|---------------0--0--0--
E|------------------------        
   Fiindca azi e ziua mea


Sanii zurlii se intrec pe creste
In zbor
Fiindca azi arde o stea



G|------------------------------
D|-------------------2--2-------
A|------------0---0-------------
E|-2---2---2--------------2--2--
   Va chem pe voi ca sa petrecem
   Ne canta iarna vesela-n prag
    


Iarna mi-e sufletul curat
Mai alb          
Il simt mare bun si cald
6Ld5REUUAAAAAA1PBEDya2BDGnf5rYKeKnmYm4Cz
2d2d9dfda356d22978b5c3a8b2c9c9f8