Phoenix - In umbra marelui URSS

  • (14 voturi)
  • Contribuție:  Bobu
  • Ultima actualizare: 16.11.2009
La inceput: 
                      |-3--2--3--2--5--0--|-------------------|
                      |-0--3-----------0--|-------------------|     fara pauza
                      |-0--2-----------0--|-------------------|     treceti la acordurile
                      |-0--0-----------2--|-------------------|     de pe vers
                      |-2--0-----------2--|---0-2-3--3-2-0----|
                      |-3--0-----------0--|-3--------------3-2|
                    
                
                   
                             
                   
              G  D           Em


 |---------0---------------2-------------------------------------|
 |-----------0---------------3---------------------1-------------|
 |-----0---------------2---------------2---------0---------------|
 |---2---2-----------0---0-----------2---2-----------------------|
 |-------------2-3-0-----------3-2-0-------0-2-3-----3-2-0-------|
 |-0-------------------------------------------------------3-2-0-|
 
  Em                 D               Am          C                

   apoi se continua iar cu Em -ul de la inceput
                                                 
           !!!fitzi atentzi la acordurile de sub linie!!!   

    Refren:  G D Em                           G D Em
                    Caci timpul vostru s-a scurs 
                                        G D Em
                    In umbra marelui URSS
                                         C       C/B        A
                    Dar ghearele v-au ramas,in orice-mbratisare
                              C     G          D
                    Astazi doare sarutul pe obraz...


dupa refren,la ultimul D se face cv d genu:|-2--2---3--2--0--2------|
                                           |-3--3---3--3--3--3------|
                                           |-2--2---2--2--2--2------|
                                           |-0--0---0--0--0--0------|
                                           |-0--0---0--0--0--0------|
                                           |-0--0---0--0--0--0--3-2-|
                                          
                                         
                                           
                                           
                                           
apoi se repeta chestia aia d p versuri incepand de pe Em


   Acorduri:  Am    C   C/B   D
  • VICTOR
    3 aprilie 2012 16:09
    Tabul e bun , am facut un cover dupa el, http://www.youtube.com/watch?v=LqXeX6AukDI , se putea si mai bine si sper sa ajute! Numai bine!
  • udar
    22 ianuarie 2009 12:43
    merge da ai pus corzile invers sau poate tu esti cu chitara invers....:P
  • Bogdan Alin
    20 aprilie 2008 13:02
    ok... sa zicem ca esti incepator si nu stii sa citesti un tab... dar daca nu o poti face nu transpune un cantec doar ca sati apara numele pe site...
    iar daca nici acum nu teai prins... totu e cu fundu in sus... intro tabulatura prima linie e coarda 1 pe chitara, adica coarda subtire...