Phoenix - Mica Tiganiada (intro)

  • (17 voturi)
  • Contribuție:  tudor americanu
  • Ultima actualizare: 14.07.2008
MICA TIGANIADA,  de PHOENIX

OK, va vreau comenturile! Ce credeti, si ce as trebui schimbate? Hai, ca 
fara critici nu pot.

___________________________________________________________________________
mai dau o-ncercare la intro, de data asta il scriu in totalitate cum il cint
eu:

Intro in Am
  Am   C     G         Am    C   G          Am   C   G                   
---0--------------------0--------------------0----------------
---1----1----0----3----------1---0----3------1---1---0----3-----
--2------------0----0----2----0----0----0---2----------0----0---
---2-----2----0----0----2-----2---0----0-----2----2---0----0-----
--0-----3--------------------3--------------0----3--------------
-------------3-------------------3-------------------3---

 c   G     Am        Am   C    G           Am        C       
--0-------------0----0---------------------0---0-------------
-1---0---------1-1--------1----0-----3------1--------1---
--0---0----2--2-------2----0-----0-----0--------2------0----
--2---0------2-------2----------0-----0----2----------2----
-3---------0--------------3--------------------0-----3-----
-----3-------------------------3-------------------------

  G       Am    C    G           C       G     Am             
------------0-----------------------0--------------0-----------
--3---------1---1----0-----3------1--------3------1-1-------
----0-----2------0-----0-----0------0----4-----2-2---------------
---0--------2---------0-----0-------2------0----2-------------
----------0-----3-----------------3------------0----------------
--3------------------3-------------------3---------------------

 G             C       G           C       Am       
-------------------0-------------------0----------------------
--3--3--3--3---1--1-1--3--3--3--3--1--1----1--1--1--1-------
---0--0--0--0----0------0--0--0--0---0--0---2--2--2--2--2----
----------------2-------------------2----------------------
---------------3-------------------3-------0--0--0--0---0---
--3--3--3--3-----------3--3--3--3------------------------

        C    G     Am                   Am Am Am Am Am  Am   
----0----------------------0-----5--|--0--0---0-00--0-0---
---1----1----0----------1-----------|--1--1---1-11--1-1----
--2--2--------0----2--2-------------|--2--2---2-22--2-2-----
-2-------2-----------2--------------|--2--2---2-22--2-2----
--------3----------0----------------|--0--0---0-00--0-0----
-------------3----------------------|--0--0---0-00--0-0----


___________________________________________________________________________

OK. Daca stiti, sint doua versiuni. una cu si una fara vioara. 

Tabul de vioara:
[Acesta l-am sris direct in C#m, si l-am scris ca pentru un tab de guitara,
deci daca cintati in grupa la doua guitars, puteti sa cintati fara the violin]

C#m
-4---4------------------4-4---4--------------
-------7-5-4--------4-5---------7-5-4--------
-------------6-6---6------------------6-6----
------------------6-------------------------
-------------------------------------------
-------------------------------------------

C#m
-------4--------\\\\\\\\\\\\\\\\\\\\\\\\\\\\\\\\9-9-9-9--9-7-------------------
---4-5---------------------------------------9-7--------
--6---------------------------------------------9-9------
-6-------------------------------------------
-------------------------------------------
-------------------------------------------

C#m
-------------9---99-9--9-7---------|--------9\\\\\\\\\\\\\\\\\\\\\\\\\\\\\\\\-
---------7-9---------------9-7-----|----7-9------------
---9-8-9----------------------9-9--|-8-9--------------
-----------------------------------|-----------------
-----------------------------------|-----------------
-----------------------------------|----------------

C#m
-----------------------------------------
------9--9----9--9----9--9---9---9----------
------9--9----9--9----9--9---9---9------------
-----11-11---11-11---11-11---9--11----------
------------------------------------------
----------------------------------------

C#m
--------------------------------------------------------------
---------------------------------------------------------------
-4--4-4--4-4--4-4-4-4---2-2--2-2--2-2-2-2-----------------------
-4--6-6--6-6--6-6-4-6---4-4--4-4--4-4-2-4---2-2--2-2--2-2-2-2\\\\---
--------------------------------------------4-4--4-4--4-4-2-4\\\\----
----------------------------------------------------------------


PORNESTE TIGANIADA:

Am   C  G    G  D  
Trec ti-gani pe drum
Am  Am   C    C  G 
Dru-mu-i plin de fum
Am C    G    G  D
Fu-mu-i plin de scrum
C   E  Am
Foc Ar-dea

G       C
Tiganie rai
G          C
Rai care e-rai
Am           
Caravan serai
C  E  Am
Ia-ca-dea


Am           C   G         Am      C  C  G  G   Am   Am Am  E E E Am   
Fac tiganii foc, focu-i la mijloc, fe-te cu ghi-oc!  
Am             C    G           Am   C  C  G  G  Am  Am  E E E Am  
Si cu carti de joc, hai noroc noroc, vi-no la so-roc!

Am C  G  G  D       Am  Am C   C  G     Am C  G  G   D       C   E  Am     
Vi-no sa-ti ghicesc, car-ti-le vor-besc, si nu ne min-tesc,  gia-car-dea

___________________________________________________________________________
As dorii ca toti sa voteze si sa puna un comment ca sa vad ce parere aveti. Mersi
  • An3
    22 octombrie 2008 22:44
    intro este destul de reusit dar la versuri as inlocui G-ul din al doilea vers cu D, in rest suna bine daca il transpui in C#m (patru semitonuri mai sus) cu capodastru :)
  • ghit razvan
    25 aprilie 2008 10:28
    no offense...dar degeaba te lauzi, tabulatura ta nu e tare reusita ;)
6Ld5REUUAAAAAA1PBEDya2BDGnf5rYKeKnmYm4Cz
3980cfd0314d9ce4a8abc33385123bb1