Phoenix - Muzica si muzichia

  • (2 voturi)
  • Contribuție:  anonime
D
Pasare de galben, 
                Bm
Care-mi stai in carpen 
                   G
Nu vrei s-asculti muzichia? 
A              D
Pasare, vai ce pasare! 

D
Domnule in negru, 
          Bm
Ca un car funebru, 
                  G
Nu vrei s-asculti muzichiia? 
A                 D
Domnule, esti un zarzare! 

(solo) 
de 3 ori: 
e------------0--0-0-2--------- 
B-----0-2-3-----3----3-3------ 
G---2------------------------ 
D---------------------------- 
A---------------------------- 
E---------------------------- 

iar apoi: 
e---0--------------- 
B-----3-2-3-0-2----- 
G------------------- 
D------------------- 
A------------------- 
E------------------- 

D
Zeule Apollo, 
             Bm
Care-mi taci acolo, 
                     G
Nici tu nu vrei s-asculti, tata, 
A                     D
Muzica? Esti si tu un domn! 

D
Surdule pe tine 
                Bm
Sa te-ntreb imi vine, 
                 G
Daca nu vrei s-asculti, tata, 
A                       D
Muzica... Dar mi-e tare somn... 

G        D
Pasare, zau, 
G           D
Domnu' e-al tau, 
G      D
Zeul e rau! 
   A
Surdule! 

(solo) 
6Ld5REUUAAAAAA1PBEDya2BDGnf5rYKeKnmYm4Cz
8d4c71f42de0a8ccba6a88b20d9b0c6d