Phoenix - Norocul Inorogului

     C                F           C             F                G 
E||-----------------------|-------------------|--5------------------|
B||---------5-------5--6--|--5--6--8----5-----|-----8--6----5--6--8-|
G||*--5--7-------7--------|-------------------|---------------------|
D||*----------------------|-------------------|---------------------|
A||-----------------------|-------------------|---------------------|
E||-----------------------|-------------------|---------------------|

       C                       F        C            G           C   
-----------------||------------5-----------|------------------------|
--6----5----L----||---5--6--8-----8--6--8--|--L--5---6--6--5--------|
----------------*||*-----------------------|------------------7--5--|
----------------*||*-----------------------|------------------------|
-----------------||------------------------|------------------------|
-----------------||------------------------|------------------------|

                                             prima oara:
           F          C             G               C              
-----------5-------------|------------------|--------------------||
--5--6--8-------8--6--8--|--L--5----6----L--|-------5------------||
-------------------------|------------------|--7----------------*||
-------------------------|------------------|-------------------*||
-------------------------|------------------|--------------------||
-------------------------|------------------|--------------------||

a doua oara:

          C             
----------------------||
----------------------||
-----7----5-----------||
----------------------||
----------------------||
----------------------||

C      F       C
Monoceros est beste,
    F      G     C
un cor at en la teste
C      F       C
Monoceros est beste,
    F      G     C
un cor at en la teste
       F       C
Pur co issi at nun,
    G          C
de bouquet at facon.
        F       C
Pur co issi at nun,
    G           C
de bouquet at facon.

Par une pulcele est prinse
or oyez en quelle guise.
De o copila e prins,
Inorogul print,
De o copila e prins,
Licornul print.

solo

Ea cu sanii in floare si dulce,
mi-l adasta ca pe un stapan.
El alearga'ntr-un suflet sa-si culce,
mandrul cap pe-al ei gales san.
Capu-n poala ei bine nu-si pune,
ca-mi adoarme ca un prunc.
Vanatorul atunci il rapune,
mi-l rapune in vested crang.
Asa-i ucis in somn,
Inorogul domn,
asa-i ucis in somn,
Licornul domn!
En son devant se dort
issi vient a sa mort.
En son devant se dort
issi vient a sa mort.
6Ld5REUUAAAAAA1PBEDya2BDGnf5rYKeKnmYm4Cz
e66437b22d8af8b5f8196eb668b1c698