Phoenix - Numa Una (solo)

Nu imi asum creditul, mi l-a facut un amic

E 100% corect. Suna mai bine la chitara cu 12 corzi. Distractie placuta!

e|---------------------------------------------------------------|
B|---------------------------------------------------------------|
G|---------------------------------------------------------------|
D|-----------4---2-2h4—2-2/4-2------------------2-4-2------------|
A|---0---2-4-------------------4-2-0--2-2/4---0-------0----------|
E|------------------------------------------2--------------------|
 
e|---------------------------------------------------------------|
B|---------------------------------------------------------------|
G|---------------------------------------------------------------|
D|--------4-2-2h4-2-4-2----------------------------2-2h4-2-------|
A|----2-4---------------4-2-4--2-4-2-0-----0-2-4-5---------------|
E|-------------------------------------4-2-----------------------|
  
e|---------------------------------------------------------------|
B|---------------------------------------------------------------|
G|---------------------------------------------------------------|
D|--2h4-2--0------------------------------------------------2----|
A|------------4-2—4p2p0-----2-4-2-0-----------0-2-4-2h4-0-4------|
E|----------------------------------4-2-0-2-4--------------------|
  
e|---------------------------------------------------------------|
B|---------------------------------------------------------------|
G|---------------------------------------------------------------|
D|---2-3---------3-4--7-6-7-6-4----------------2-2-4-2—2h4p2-0---|
A|-4-----4-2---4------------------0-2-4-5------------------------|
E|-----------4---------------------------------------------------|
 
e|---------------------------------------------------------------|
B|---------------------------------------------------------------|
G|---------------------------------------------------------------|
D|-------------------------------------------------2---2-3-------|
A|---4-2-4p2p0-----2-4-2-0-----------0-2-4-2h4-0-4---4-----4-2---|
E|-------------------------4-2-0-2-4----------------------------4|
  

e|---------------------------------------------------------------|
B|---------------------------------------------------------------|
G|---------------------------------------------------------------|
D|-----3-4---7-6-7-6-4-------------------------------------------|
A|---4-------------------------0--2-4--------0--2-4--------------|
E|-------------------------0-2--------2--0-2--------2------------|