Phoenix - Numai una

PHOENIX - Numai una

           A     F#m    E  A
Pe umeri pletele-i curg riu
          A      F#m    E  A
Mladie-i ca un spic de griu
         D       E        F#m
Cu sortuletu-i prins la briu
   A         C#
O pierd din ochi de draga...

            A             Fm#             A           F#m   
e|-----------------------2-x-2------------------------2-x-2---|
B|---------2-x-2---------2-x-2-----------2-x-2--------2-x-2---|
G|---------2-x-2---------2-x-2-----------2-x-2--------2-x-2---|
D|---------2-x-2---------4-x-4-----------2-x-2--------4-x-4---|
A|---------0-x-0---2-4---4-x-4-----------0-x-2---2-4--4-x-4---|
E|---0-2-----------------2-x-2-----0-2----------------2-x-2---|.....


           A   E   F#m/E/A/E/F#m  	(cu E faceti legatura intre F#m si A) 
Eu cand o vad m-angalbenesc		
             A  E   F#m E A/E/F#m     
Si cand n-o vad m-ambolnavesc
         D     E      F#m /E/F#m/E
Iar vin altii de-o petesc
     A        C#    F#m
Vin popi de m-a dezleaga
        D     E      F#m /E/F#m/E
Iar vin altii de-o petesc
    A       C#    F#m
Vin popi de m-a dezleaga

La vorba-n drum trei ceasuri trec
Ea pleaca eu ma fac ca plec
Dar stau acolo si-o privesc
Cu ochii-mi cat e zarea
Dar stau acolo si-o privesc
Cu ochii-mi cat e zarea

(A/A  A/A E F#m/F#m F#m/F#m E A/A A/A E F#m/F#m F#m/F#m)
(Incercati bataia asta si o sa va iasa, pana la urma)

Asa saraca cum e ea
Mi-e draga mie si-i a mea
Decat sa m-a despart de ea
Mai bine-aprind tot satul
Decat sa m-a despart de ea
Mai bine-aprind tot satul
Decat sa m-a - decat sa ma despart de ea
Mai bine - mai bine-aprind aprind tot satul

Solo: 

e|-------------------------------------------------------------|
B|-------------------------------------------------------------|
G|-------------------------------------------------------------|
D|------------------2/4-2-4--2-4-2-----------------------------|
A|---------0---2-4------------------4-2-0--2-2/4---------------|
E|---0-2-0---------------------------------------2-------------|

e|-------------------------------------------------------------|
B|-------------------------------------------------------------|
G|-------------------------------------------------------------|
D|------2/4-2---------2/4-2-4--2-4-2---------------------------|
A|----0-------0--2-4------------------4-2-4---2-4-2-0----------|
E|--0---------------------------------------------------4-2----|

e|-------------------------------------------------------------|
B|-------------------------------------------------------------|
G|-------------------------------------------------------------|
D|--------0--2-2/4-2--4-2-0------------------------------------|
A|--0-2-4-------------------4-2-4/2/0--2-4/2/0-----------------|
E|--------------------------------------------/4/2-------------|

e|-------------------------------------------------------------|
B|-------------------------------------------------------------|
G|-------------------------------------------------------------|
D|--------------------2----2-3----------3-4----6/7-6--7-6-4----|
A|-------0-2-4-2-0--4---4-------4-2---4------------------------|
E|-0-2-4----------------------------4--------------------------|

repeat 

e|-------------------------------------------------------------|
B|-------------------------------------------------------------|
G|-------------------------------------------------------------|
D|--------0--2-2/4-2--4-2-0------------------------------------|
A|--0-2-4-------------------4-2-4/2/0--2-4/2/0-----------------|
E|--------------------------------------------/4/2-------------|

e|-------------------------------------------------------------|
B|-------------------------------------------------------------|
G|-------------------------------------------------------------|
D|-------------------------2----2-3---------3-4--6/7-6--7-6-4--|
A|-------0-2-4--4/5/4-0--4---4------4-2---4--------------------|
E|-0-2-4--------------------------------4----------------------|
  • mr guitarist
    8 ianuarie 2010 18:15
    totusi solo-ul nu suna prea bine...
    mai este ceva de adaugat???