Phoenix - Nunta

|-----------------------------------------------------------------------|
|-----------------------------------------------------------------------|
|-----------------------------------------------------------------------|
|-9-9-9--9-9--9-7-12---5--5-5-/7--7-7-7---------------------------------|
|-7-7-7--7-7--7-5-10---3--3-5-/5--5-5-5---------------------------------|
|-----------------------------------------------------------------------|
 
 Sau folosesc acorduri deschise, tot atatea batai ca si mai sus, decat ca 
schimb putin ritmul.

 Em  D G  C D
|-0----3--0-2--------------------------------------------------|
|-0--3-3--1-3--------------------------------------------------|
|-0--2-0--0-2--------------------------------------------------|
|-2--0-0--2-0--------------------------------------------------|
|-2--0-2--3----------------------------------------------------|
|-0--2-3-------------------------------------------------------|

 Nu cred ca este pe aceiasi tonalitate pe care o canta cei de la phoenix,
 n-am stat sa o cant o data cu melodia originala.
   Comentarii si amenintari la : gabryllon@yahoo.com

Transpunerile de pe acest site reprezintă viziunea personală a utilizatorilor asupra pieselor.
d53e7a9abc561eaf69359bf10a90cea7
f7e9d1d2-ebba-44ba-8198-e810bddf71a6