Phoenix - Nunta

Voce:

E||------------------------------|-------------------------------------------|
B||--1----1--L-----1-------------|-------------------------------1--1--1-----|
G||---------------------3--0--L--|-----1----1--1--1--3--3--3--3--------------|
D||------------------------------|-------------------------------------------|
A||------------------------------|-------------------------------------------|
E||------------------------------|-------------------------------------------|


------------------------------|-------------------------------------------|
--1----1--L-----1-------------|-------------------------------1--1--1-----|
---------------------3--0--L--|-----1----1--1--1--3--3--3--3--------------|
------------------------------|-------------------------------------------|
------------------------------|-------------------------------------------|
------------------------------|-------------------------------------------|


------------------------------|-------------------------------------------|
--1----1--L-----1-------4-----|-------------------------------1-----------|
---------------------3--------|-----1----1--1--1--3--3--3--3--------------|
------------------------------|-------------------------------------------|
------------------------------|-------------------------------------------|
------------------------------|-------------------------------------------|


------------------------------|-------------------------------------------|
--1----1--L-----1-------4-----|-------------------------------1-----------|
---------------------3--------|-----1----1--1--1--3--3--3--3--------------|
------------------------------|-------------------------------------------|
------------------------------|-------------------------------------------|
------------------------------|-------------------------------------------|


-----------------1---------|--1--------------3---------|
--1---------1--------------|-------4--------------1----|
---------------------------|---------------------------|
---------------------------|---------------------------|
---------------------------|---------------------------|
---------------------------|---------------------------|


-------------------------------------|----------------------------|
------------1------------------------|--3----3----L----L----L-----|
-----------------0----0----3---------|----------------------------|
-------------------------------------|----------------------------|
-------------------------------------|----------------------------|
-------------------------------------|----------------------------|


-----------------1---------|--1--------------3---------|
--1---------1--------------|-------4--------------1----|
---------------------------|---------------------------|
---------------------------|---------------------------|
---------------------------|---------------------------|
---------------------------|---------------------------|


-------------------------------------|----------------------------||
------------1------------------------|--3----3----L----L----L-----||
-----------------0----0----3---------|----------------------------||
-------------------------------------|----------------------------||
-------------------------------------|----------------------------||
-------------------------------------|----------------------------||


Acordurile:


     C5          A#5    G5         G#5         A#5       C5          
E||--------------------------|--------------------------------------|
B||--------------------------|--------------------------------------|
G||--5-----------3-----------|--------------------------------------|
D||--5-----------3------5----|-----6-----------8--------10----L-----|
A||--3-----------1------5----|-----6-----------8--------10----L-----|
E||---------------------3----|-----4-----------6---------8----L-----|


  C5          A#5    G5         G#5         A#5       C5          
--------------------------|--------------------------------------|
--------------------------|--------------------------------------|
--5-----------3-----------|--------------------------------------|
--5-----------3------5----|-----6-----------8--------10----L-----|
--3-----------1------5----|-----6-----------8--------10----L-----|
---------------------3----|-----4-----------6---------8----L-----|


  C5          A#5    D#5        C#5         D#5       F5          
--------------------------|--------------------------------------|
--------------------------|--------------------------------------|
--5-----------3------8----|-----6-----------8--------10----L-----|
--5-----------3------8----|-----6-----------8--------10----L-----|
--3-----------1------6----|-----4-----------6---------8----L-----|
--------------------------|--------------------------------------|


  C5          A#5    D#5        C#5         D#5       F5          
--------------------------|--------------------------------------|
--------------------------|--------------------------------------|
--5-----------3------8----|-----6-----------8--------10----L-----|
--5-----------3------8----|-----6-----------8--------10----L-----|
--3-----------1------6----|-----4-----------6---------8----L-----|
--------------------------|--------------------------------------|


   F5             A#5               D#5            C5    
---------------------------|----------------------------|
---------------------------|----------------------------|
--10--------L-----3--------|--L-----8--------L-----5----|
--10--------L-----3--------|--L-----8--------L-----5----|
---8--------L-----1--------|--L-----6--------L-----3----|
---------------------------|----------------------------|


            C5             D#5               G5                  
------------------------------------|---------------------------|
------------------------------------|---------------------------|
--L---------5--------L-----8--------|--L------------------------|
--L---------5--------L-----8--------|--L-----5--------L---------|
--L---------3--------L-----6--------|--L-----5--------L---------|
------------------------------------|--------3--------L---------|


   F5             A#5               D#5            C5    
---------------------------|----------------------------|
---------------------------|----------------------------|
--10--------L-----3--------|--L-----8--------L-----5----|
--10--------L-----3--------|--L-----8--------L-----5----|
---8--------L-----1--------|--L-----6--------L-----3----|
---------------------------|----------------------------|


            C5             D#5                                    
------------------------------------|---------------------------||
------------------------------------|---------------------------||
--L---------5--------L-----8--------|--L------------------------||
--L---------5--------L-----8--------|--L-----5--------L---------||
--L---------3--------L-----6--------|--L-----5--------L---------||
------------------------------------|--------3--------L---------||


C A# G
Bine-i mirelui        
G# A# C
Că nu-i nime-n lume ca mireasa lui
C A# G
Uită-te la ea
G# A# C
Ruptă e din flori şi mândră ca o stea

C A# D#
Măi ce-om mai juca
C# D# F
Lai-la-la-la-la-la-a
C A# D#
şi ce-om mai cânta
C# D# F
Lai-la-la-la-la-a

F A# D# C
Ce-om mai rupe la opinci
C D# G
şi-om face gropi adânci
F A# D# C
Dară nu ne vom opri
C D# G
Până în zori de zi

Naşii mirelui
Le duc fraga, grâna câmpului na na
Iară naşii ei
Roua norilor şi florile de tei 

şi o varianta mai simplă, transpusă:


A G E
F G A
A G E
F G A

A G C
A# C D
A G C
A# C D

D G C A
A C E
D G C A
A C E
  • ady_gry
    9 aprilie 2013 18:27
    Salut...e faina transpunerea, dar ai vreo idee de cum vine solo-ul! ms
6Ld5REUUAAAAAA1PBEDya2BDGnf5rYKeKnmYm4Cz
305492e5e9da803cd9c8c4b1a6aa6ac8