Phoenix - Nunta (varianta noua)

  • (1 voturi)
  • Contribuție:  sobirubble
  • Ultima actualizare: 16.06.2015
Salut! Daca e ceva gresit, va rog sa-mi spuneti. Enjoy!

Guitar 1:
e|-15-13-15p13----------13-15--13h15p13---------------------------------------------
B|-------------16-15-16-----------------16--15-16p15/13-15-11-13-8------------------x4
G|-----------------------------------------------------------------8p7--------------
D|---------------------------------------------------------------------10-8-10------
A|----------------------------------------------------------------------------------
E|----------------------------------------------------------------------------------
Guitar 2: (incepe dupa primul riff de la chitara 1)
e|----------------------------------------------------------------------------------
B|-13-11-13p11----------11-13-11h13p11----------------------------------------------x3
G|-------------12-10-12----------------12--10p12----10------------------------------
D|-----------------------------------------------13----12-13-10-8p7-----------------
A|------------------------------------------------------------------10-8-10---------
Guitar 3:
e|----------------------------------------------------------------------------------
B|----------------------------------------------------------------------------------
G|--5-5-----------------------------------------------------------------------------
D|--5-5-----6--6-6-6-8-8-8-8-10-10-10-----------------------------------------------
A|--3-3-----6--6-6-6-8-8-8-8-10-10-10-----------------------------------------------
E|----------4--4-4-4-6-6-6-6-8--8--8------------------------------------------------

e|----------------------------------------------------------------------------------
B|----------------------------------------------------------------------------------x6
G|----------------------------------------------------------------------------------
D|-----------------5-3----6--6-6-6-8-8-8-8-10-10-10---------------------------------
A|-3-1-3-1---6-5-3-----6--6--6-6-6-8-8-8-8-10-10-10---------------------------------
E|---------3--------------4--4-4-4-6-6-6-6-8--8--8----------------------------------

e|----------------------------------------------------------------------------------
B|----------------------------------------------------------------------------------x2
G|------3----8----5---------3-------------------------------------------------------
D|-3----3----8----5----3----3----5--------------------------------------------------
A|-3----1----6----3----3----1----5--------------------------------------------------
E|-1-------------------1---------3--------------------------------------------------

e|----------------------------------------------------------------------------------
B|----------------------------------------------------------------------------------x4
G|----------------------------------------------------------------------------------
D|-----------------5-3----6--6-6-6-8-8-8-8-10-10-10---------------------------------
A|-3-1-3-1---6-5-3-----6--6--6-6-6-8-8-8-8-10-10-10---------------------------------
E|---------3--------------4--4-4-4-6-6-6-6-8--8--8----------------------------------

e|----------------------------------------------------------------------------------
B|----------------------------------------------------------------------------------x2
G|------3----8----5---------3-------------------------------------------------------
D|-3----3----8----5----3----3----5--------------------------------------------------
A|-3----1----6----3----3----1----5--------------------------------------------------
E|-1-------------------1---------3--------------------------------------------------

Guitar 1:                               Guitar 2:
e|--------------                        e|--------------
B|--------------x22                     B|--------------x22
G|--------------                        G|--------------
D|--5-5-5-5-5---                        D|--5-5-5---5---
A|--5-5-5-5-5---                        A|--------5-----
E|--3-3-3-3-3---                        E|--------------

Guitar 3:
e|-13b15----13b15----15p13-------15-15-15p13-------15-15-15p13----------------------
B|-------------------------17-15-------------17-15-------------17-15-15-------------
G|----------------------------------------------------------------------------------
D|----------------------------------------------------------------------------------
A|----------------------------------------------------------------------------------
E|----------------------------------------------------------------------------------

e|----------------------------------------------------------------------------------
B|----------------------------------------------------------------------------------
G|----15-15-17-15----15-15-17-15--15-------------15--15-----------------------------
D|-16-------------16-----------------16-14--------------16-14-----------------------
A|-----------------------------------------17-17--------------17-17-17--------------
E|----------------------------------------------------------------------------------

e|----------------------------------------------------------------------------------
B|----------------------------------------------------------------------------------
G|-15-------------15-15-------------------------------------------------------------
D|----16-14-------------16-14-------------------------------------------------------
A|----------17-17-------------17-17-17-16b17----------------------------------------
E|----------------------------------------------------------------------------------

Guitar 1:
e|----------------------------------------------------------------------------------
B|----------------------------------------------------------------------------------
G|----2--3--5/7--5--3p2-------------3--5-----3--2--3p2------------------------------
D|-5---------------------5--3----3--------3------------5--3--5----------------------
A|----------------------------------------------------------------------------------
E|----------------------------------------------------------------------------------

Guitar 2:
e|----------------------------------------------------------------------------------
B|------------6--6p5-----------6--8-----6--5--6p5-----------------------------------x2
G|------3--7----------7--7--x--------7-------------7--5--7--------------------------
D|-5--------------------------------------------------------------------------------
A|----------------------------------------------------------------------------------
E|----------------------------------------------------------------------------------

Guitar 1:
e|----------------------------------------------------------------------------------
B|----------------------------------------------------------------------------------
G|----2--3--5/7--5--3p2-------------3--5-----3--2--3p2------------------------------
D|-5---------------------5--3----3--------3------------5--3--5----------------------
A|----------------------------------------------------------------------------------
E|----------------------------------------------------------------------------------

Guitar 2:
e|----------------------------------------------------------------------------------
B|-------------18-18p17---------18-20----18-17-18p17--------------------------------x2
G|----15-17/19----------19-17-x-------19-------------19-17-19-----------------------
D|-17-------------------------------------------------------------------------------
A|----------------------------------------------------------------------------------
E|----------------------------------------------------------------------------------

Guitar 1:
e|-15-13-13p13---------13-15--13h15p13----------------------------------------------
B|-------------16-15-16----------------16--15-16p15/13-15-11-13-8-------------------x4
G|----------------------------------------------------------------8p7---------------
D|--------------------------------------------------------------------10-8-10-------
A|----------------------------------------------------------------------------------
E|----------------------------------------------------------------------------------

Guitar 2: (incepe dupa primul riff de la chitara 1)
e|----------------------------------------------------------------------------------
B|-13-11-13p11----------11-13-11h13p11----------------------------------------------x3
G|-------------12-10-12----------------12--10p12----10------------------------------
D|-----------------------------------------------13----12-13-10-8p7-----------------
A|------------------------------------------------------------------10-8-10---------

Guitar 3:
e|----------------------------------------------------------------------------------
B|----------------------------------------------------------------------------------
G|--5-5-----------------------------------------------------------------------------
D|--5-5-----6--6-6-6-8-8-8-8-10-10-10-----------------------------------------------
A|--3-3-----6--6-6-6-8-8-8-8-10-10-10-----------------------------------------------
E|----------4--4-4-4-6-6-6-6-8--8--8------------------------------------------------

e|----------------------------------------------------------------------------------
B|----------------------------------------------------------------------------------x6
G|----------------------------------------------------------------------------------
D|-----------------5-3----6--6-6-6-8-8-8-8-10-10-10---------------------------------
A|-3-1-3-1---6-5-3-----6--6--6-6-6-8-8-8-8-10-10-10---------------------------------
E|---------3--------------4--4-4-4-6-6-6-6-8--8--8----------------------------------

e|----------------------------------------------------------------------------------
B|----------------------------------------------------------------------------------x2
G|------3----8----5---------3-------------------------------------------------------
D|-3----3----8----5----3----3----5--------------------------------------------------
A|-3----1----6----3----3----1----5--------------------------------------------------
E|-1-------------------1---------3--------------------------------------------------

Guitar 1:
e|-15-13-13p13---------13-15--13h15p13----------------------------------------------
B|-------------16-15-16----------------16--15-16p15/13-15-11-13-8-------------------
G|----------------------------------------------------------------8p7---------------
D|--------------------------------------------------------------------10-8-10-------
A|----------------------------------------------------------------------------------
E|----------------------------------------------------------------------------------

Guitar 2: (incepe dupa primul riff de la chitara 1)
e|----------------------------------------------------------------------------------
B|-13-11-13p11----------11-13-11h13p11----------------------------------------------
G|-------------12-10-12----------------12--10p12----10------------------------------
D|-----------------------------------------------13----12-13-10-8p7-----------------
A|------------------------------------------------------------------10-8-10---------

Guitar 3:
e|----------------------------------------------------------------------------------
B|----------------------------------------------------------------------------------
G|--5-5-----------------------------------------------------------------------------
D|--5-5-----6--6-6-6-8-8-8-8-10-10-10-----------------------------------------------
A|--3-3-----6--6-6-6-8-8-8-8-10-10-10-----------------------------------------------
E|----------4--4-4-4-6-6-6-6-8--8--8------------------------------------------------