Phoenix - Ochi Negri, Ochi De Tigan

  • (2 voturi)
  • Contribuție:  Bm Marian Bm
  • Ultima actualizare: 15.12.2013
|------------7------------------------------------|-----------------------------------|
|---5----------------8---7---5--------------------|---5-------5-------5---------------|
|----------------------------------------7--------|------------------------------7----| 
|-------------------------------------------------|-----------------------------------|
|-------------------------------------------------|-----------------------------------|
|-------------------------------------------------|-----------------------------------|


|--------------------------------|-----7------------5------------------5-----7--------|
|---------5-----7-----------8----|------------------------8---------------------------|
|---7----------------------------|----------------------------------------------------|
|--------------------------------|----------------------------------------------------|
|--------------------------------|----------------------------------------------------|
|--------------------------------|----------------------------------------------------|


|--------5----7--------------------------|
|---8---------------8----7----5----------|
|------------------------------------7---|       X 3
|----------------------------------------| 
|----------------------------------------|
|----------------------------------------|


|---7---------5----------------------------------------------|
|--------8----------7----8----7----5-----------5----5--------|
|------------------------------------------7-----------------|
|------------------------------------------------------------|
|------------------------------------------------------------|
|------------------------------------------------------------|


|---7---------5------------------------------------------|
|--------8----------7----8----7----5-----------5---------|
|------------------------------------------7-------------|
|--------------------------------------------------------|
|--------------------------------------------------------|
|--------------------------------------------------------|


|---7---------5----------------------------------------------|
|--------8----------7----8----7----5-----------5----5--------|
|------------------------------------------7-----------------|
|------------------------------------------------------------|
|------------------------------------------------------------|
|------------------------------------------------------------|


|---7----------------------------------------|
|---------8----7----5-----------5------------|
|--------------------------7-----------------|
|--------------------------------------------|
|--------------------------------------------|
|--------------------------------------------|




Intro: Em, E7, E6, E5

 Em             G      D  
Fată verde cu părul pădure,
 Em             G      D
Fată verde cu părul pădure,
 Em                     G          D
Simţi cum privirea lor vrea să te fure.

 C        G   D   G
Noaptea-n ei ţese ie,
 C         G  D  Em   
Zburătorii ca să vie.
 C        G   D   G
Noaptea-n ei ţese ie,
 C       G      D    Em
Nimeni urma să le-o ştie.


 Em        G        D
Fată verde ei te sărută,
 Em          G        D
Cu privirea lor cea mută,
 Em            G         D
Ochii negrii, ochi de ţigani.

C         G    D   G
Noaptea-n ei ţese ie,
 C          G  D  Em   
Zburătorii ca să vie.
 C         G   D   G
Noaptea-n ei ţese ie,
 C       G      D    Em
Nimeni urma să le-o ştie.

 D             G
Umezi sunt de dor,
 C                     G
Şi-al lor vis plin de zbor.
 D              G
Noaptea ei se scaldă,
 C                  G
În sclipiri ca de salbă...
 D               G
În sclipiri de salbă...


 Em              G     D  
Fată verde cu părul pădure,
 Em             G      D
Fată verde cu părul pădure,
 Em                     G          D
Simţi cum privirea lor vrea să te fure.

 C         G   D  G
Noaptea-n ei ţese ie,
 C          G  D  Em   
Zburătorii ca să vie.
 C        G   D   G
Noaptea-n ei ţese ie,
 C      G     D      Em
Nimeni urma să le-o ştie.
6Ld5REUUAAAAAA1PBEDya2BDGnf5rYKeKnmYm4Cz
b936f0ba3c69cd1eec959dff0e58c122