Phoenix - Ochii negri ochi de tigan/Fata verde

Intro:

e---7-------------------------7-5---5-7---5-7----------|   
B-5---8-7-5---5-5-5-----5-7-8-----8-----8-----8-7-5----|   
G-----------7-------7-7-----------------------------7--|    
D------------------------------------------------------|x2  
A------------------------------------------------------|    
E------------------------------------------------------|    

e-7---5---------------|-7---5-------------|-7---5---------------|-7-----------|
B---8---7-8-7-5---5-5-|---8---7-8-7-5---5-|---8---7-8-7-5---5-5-|---8-7-5---5-|
G---------------7-----|---------------7---|---------------7-----|---------7---|x2
D---------------------|-------------------|---------------------|-------------|
A---------------------|-------------------|---------------------|-------------|
E---------------------|-------------------|---------------------|-------------|

Em

Em             G     D
Fata verde cu parul padure
Fata verde cu parul padure
Simti cu privirea lor vrea sa te fure
 
Refren:
C           G   D    Em
  Noaptea-n ei tese ie
  Zburatorii ca sa vie
  Noaptea-n ei tese ie
  Nimeni urma sa le-o stie
 

Fata verde ei te saruta
Cu privirea lor cea muta
Ochii negrii, ochi de tigani
 
Refren
 
Bridge:

D             G
Umezi sunt de dor
  C           D
Si-al lor vis plin de zbor
Noapte ei se scalda 
In sclipiri ca de salba 
   C           D
In sclipiri de salba


e---7-------------------------7-5---5-7---5-7----------|   
B-5---8-7-5---5-5-5-----5-7-8-----8-----8-----8-7-5----|   
G-----------7-------7-7-----------------------------7--|    
D------------------------------------------------------|x3  
A------------------------------------------------------|    
E------------------------------------------------------|    

e-7---5---------------|-7---5-------------|-7---5---------------|-7-----------|
B---8---7-8-7-5---5-5-|---8---7-8-7-5---5-|---8---7-8-7-5---5-5-|---8-7-5---5-|
G---------------7-----|---------------7---|---------------7-----|---------7---|x2
D---------------------|-------------------|---------------------|-------------|
A---------------------|-------------------|---------------------|-------------|
E---------------------|-------------------|---------------------|-------------|

 
Fata verde cu parul padure
Fata verde cu parul padure
Simti cum privirea lor vrea sa te fure 
 
Refren X 3

e-7---5---------------|-7---5-------------|-7---5---------------|-7-----------|
B---8---7-8-7-5---5-5-|---8---7-8-7-5---5-|---8---7-8-7-5---5-5-|---8-7-5---5-|
G---------------7-----|---------------7---|---------------7-----|---------7---|
D---------------------|-------------------|---------------------|-------------|
A---------------------|-------------------|---------------------|-------------|
E---------------------|-------------------|---------------------|-------------

Recent Covaci  inceput sa faca ciupitura cu o octava mai jos adica introul incepe pe tastiera 2 a corzii re.

Transpunerile de pe acest site reprezintă viziunea personală a utilizatorilor asupra pieselor.
d8f3548a918646d486b4fbe94f14ed11
f7e9d1d2-ebba-44ba-8198-e810bddf71a6