Phoenix - Ochii negri, ochi de tigan / Fata verde

intro:

e|---7-------------------------7-5---5-7---5-7----------|   
B|-5---8-7-5---5-5-5-----5-7-8-----8-----8-----8-7-5----|   
G|-----------7-------7-7-----------------------------7--|    
D|------------------------------------------------------|x2  
A|------------------------------------------------------|    
E|------------------------------------------------------| 

e|--7---5-------------------7---5--------------|
B|----8-----7h8p7p5---5-5-----8----7h8p7p5---5-|
G|------------------7----------------------7---|
D|---------------------------------------------|
A|---------------------------------------------|
E|---------------------------------------------|

e|--7---5------------------7-----------|
B|----8----7h8p7p5---5-5-----8--7p5-3--| aici merge in loc de
G|-----------------7-------------------|     3 pe B si 7 pe G
D|-------------------------------------|  fiind acelasi lucru
A|-------------------------------------|
E|-------------------------------------|

    Em7           Em6           Em6           Em
e|--------------------------------------------------------------0--
B|--5--5-5-5-5--5-3--3-3-3-3--3-2--2-2-2-2--2-1--1-1-1-1--0-0-0-0--
G|----------------0--0-0-0-0--0-0--0-0-0-0--0-0--0-0-0-0--0-0-0-0--
D|------------------------------2--2-2-2-2--2-2--2-2-2-2--2-2-2-2--
A|--------------------------------------------2--2-2-2-2--2-2-2-2--
E|------------------------------------------------------------0-0-


Em            G     D
Fata verde cu parul padure
Em            G     D
Fata verde cu parul padure
Em                    G          D
Simti cu privirea lor vrea sa te fure

Ref:
  Em        G  D    Em
  Noaptea-n ei tese ie
    D  G     D     Em
  Zburatorii ca sa vie
  Em        G  D    Em
  Noaptea-n ei tese ie
  C      G    D     Em
  Nimeni urma sa le-o stie

Em         G     D
Fata verde ei te saruta
Em          G       D
Cu privirea lor cea muta
Em            G       D
Ochii negrii, ochi de tigani

Refr: 
  Em        G  D    Em
  Noaptea-n ei tese ie
    D  G     D     Em
  Zburatorii ca sa vie
  Em        G  D    Em
  Noaptea-n ei tese ie
  C      G    D     Em
  Nimeni urma sa le-o stie

Bridge:
  D G
  Umezi sunt de dor
  C G D
  Si-al lor vis plin de zbor
  D G
  Noaptea-n ei se scalda
  C G D
  În sclipiri ca de salba ...
  C G D
  În sclipiri de salba ...

Em            G     D
Fata verde cu parul padure
Em            G     D
Fata verde cu parul padure
Em                    G          D
Simti cu privirea lor vrea sa te fure...
  • Bogdan Alin
    14 iunie 2008 13:50
    nnnu chiar.. vezi ca am schimbat niste acorduri si e pus ceva in plus... asa am vazut la cineva... si asa o cant si eu... daca vrei da un copy - paste, punele pe tabulatura ta si adminu poate sa stearga tabu asta...
  • Trooper
    13 iunie 2008 16:46
    vorbeai de copiat ;)