Phoenix - Orient Express

  • (11 voturi)
  • Contribuție:  generalDona
  • Ultima actualizare: 24.04.2008
|--------------------------------------------------------------------
|--------------------------------------------------------------------
|-----4-0-----2-0-----4-0-----2-0--------2-4-0-2-0-----2-0-4-0-------
|--2------4-0------2------4-0------2-4-5-----------4-0---------4-0-2-
|--------------------------------------------------------------------
|--------------------------------------------------------------------

|--------------------------------------------------------------
|--------------------------------------------------------------
|-4-0-----2-0---4-0-----2-0-------2-4-0-2-0--------------------
|-----4-0-----2-----4-0-----2-4-5-----------4-0---2-2-2-0-2-0--
|-----------------------------------------------2--------------
|--------------------------------------------------------------

|--------------------------------------------------------------------
|--------------------------------------------------------------------
|-4-0-----2-0------4-0-----2-0--------2-4-0-2-0-----2-0-4-0----------
|-----4-0-----2-0------4-0------2-4-5-----------2-0---------2-5--2-0-
|--------------------------------------------------------------------
|--------------------------------------------------------------------

|------------------------------------------------------------
|------------------------------------------------------------
|-4-0-----2-0-----4-0-----2-0-------2-4-0-2-0----------------
|-----4-0-----2-0-----4-0-----2-4-5------------4-0-----2-2-2-
|--------------------------------------------------2-0-------
|------------------------------------------------------------

|-------------------------------------------
|-------------------------------------------
|-909090-2-2-4-0-2-0-2-0--------------------
|-------------------------4-2-4-0-2---------
|-------------------------------------------
|-------------------------------------------

Imi pare rau, doar atat am putut sa reproduc fiindca melodia este cam rapida
si mi-am distrus cativa neuroni incercand sa-mi dau seama ce si cum. Sper sa
va ajute in vre-un fel  si poate decsoperiti si restu'; va rog de altfel 
daca sesizati greseli sau ceva lipsa sa imi  ziceti si mie, iar daca voi 
avea timp si neuroni necesari, o sa incerc sa transpun  si restu. asta e 
deocamdata... enjoy!!!
  • Bogdan Alin
    11 iunie 2008 17:09
    imi era putin lene sa urc melodia pe site, ca numi mergea bine movie makeru', si ca am zis ca o va face altcineva. da... vad ca nu sa sinchisit nimeni... deci http://www.youtube.com/watch?v=weMK2zhU2cA
  • Bogdan Alin
    28 mai 2008 17:40
    am impresia ca pe parcursul cantecului foloseste si 4 - 5 (pe intro unde ai scris tu 4-0) pe coarda D 4
  • Bogdan Alin
    20 aprilie 2008 12:30
    vaiiiiiiiiiiiiiiiiiii... traitar' :*:*:*:* te iubesc ...:D
6Ld5REUUAAAAAA1PBEDya2BDGnf5rYKeKnmYm4Cz
7bf525b1109dc319a45623d0802777d8