Phoenix - Orujo (intro)

Acesta este primul meu tab si sper ca totul e ok. daca gasiti ceva gresit va rog sa-mi 
spuneti:D

|--------------------------------------------------------
|---0h1p0---0--------------------------------------------
|---------2-----2-0--------2-0--------0------------------
|--------------------4-----------4-2-----4-2-1-2---------
|--------------------------------------------------------
|--------------------------------------------------------

   Em
|-----------------------------------------------
|---------------3-1h3h1-------------------------
|---0-2/4-4~-------------4-2-2h4-2-0------------
|-------------------------------------4-5-4-2---
|-----------------------------------------------
|-----------------------------------------------

|--------------------------------------3-2-3-2-0--
|---------------3-1h3h1---------------------------
|-------2/4-4~-----------4-2-2h4-2-0--------------
|----0--------------------------------------------
|-------------------------------------------------
|-------------------------------------------------

|----2h3p2p0-2--0------------3h5p3-2-2-3-2-0-------
|------------------3-3h5-0-----------------------
|------------------------------------------------
|------------------------------------------------
|------------------------------------------------
|------------------------------------------------
6Ld5REUUAAAAAA1PBEDya2BDGnf5rYKeKnmYm4Cz
f1afd81f81b6f5221c7cc5baf1b87a57