Phoenix - Pseudo-Morgana

  • Contribuție:  anonime
Intro


G--9--9/--11--11---
D--7--7/--9---9----
A------------------
E------------------

Formula I
G--------------- ------------------ ------------------
D--------------- ------------------ ------------------
A--------------- ------------------ ------------------
E--7-7--0--7-7-- --7--5-5--0--5-5-- --5--4-4--0--4-4--



G------------------ ------------------
D------------------ ------------------
A------------------ ------------------
E--4--3-3--0--3-3-- --0-0-0--3--5--7--



Formula a II-a

G---------------------------- -----7----------------
D--9-9--------------7--9-9--- --9-----9p7h9--7~~~---
A-------------7--9----------- ----------------------
E-------7--9----------------- ----------------------


G---------------------------- ----------------------------
D--7-7--------------5--7-7--- --9-9--------------7--9-9---
A-------------5--7----------- -------------7--9-----------
E-------5--7----------------- -------7--9-----------------


Formula a III-a

G--------------- ---------------- ----------------
D--------------- --12--11--9--7-- --6--7--9-------
A--------------- ---------------- -----------7----
E--7---3--5--7-- ---------------- ----------------


G---------------------------11--- ------9------9--11--12--11~~--
D--9--11--12-----12--11--9------- --12-----12-------------------
A-------------9------------------ ------------------------------
E-------------------------------- ------------------------------

Finalul=intro.
6Ld5REUUAAAAAA1PBEDya2BDGnf5rYKeKnmYm4Cz
e6bce18f5f68d136212eb89944db039c