Phoenix - Strunga

  • (20 voturi)
  • Contribuție:  anonim514
Em - 779987
G  - 355433
F  - 133211
Dm - 000231

                                          ___1___ __2___  
Bataia (mai putin la partea de refren) e: J J JsJ J JsJs , bataia in partea 1 se face
 pe ultimele 3 corzi (EAD) si in partea 2 pe primele 3 (GBE).

La refren se poate folosi o bataie de genul J J (pe fiecare acord). 

Em   G     F     Dm       Em
In padurea de la strunga
Sunt de cei cu pusca lunga
Care dau chioras la punga

Em      G      F        Em
Sunt de cei ce-mpusca-n luna
Care noaptea-n frunze suna
Feciori de lele nebuna

Em      G      F      Dm     Em
Fa-te-n laturi mai crestine, mai
Daca vrei sa treci cu bine
Sa ramâi cu viata-n tine

Em     G       F     Em
Opt voinici cu spete late
Si cu maneci suflecate
Stau cu pustile-ncarcate

Em G       F     Dm    Em
Oleleu, ciocoi bogate, hei
Ici te-i trece din pacate, hei
Sa-ti arunc doi glonti in spate, hei

Em      G     F    Em
Ca mi-e pusca hultuita 
Si mi-e ghioaga tintuită
Si mi-e inima-ncoltita

Solo:

|-------------------------------------------------------------------|
|-------------------------------------------------------------------|
|---7-9-9b11---9h11p9-7-6-7-7h9---9-6-7-9-6-6h7---6h7p6---6---------|
|-9-----------------------------------------------------9---7-9-7---|
|-----------------------------------------------------------------9-|
|-------------------------------------------------------------------|

|-------------------------------------------------------------------|
|-------------------------------------------------------------------|
|----------------------6-7-------6-7--6h7p6---6-7-7/9-6-7-9-9b11b9--|
|-6-7-7h9-------6-7-9------6-7-9------------9-----------------------|
|-----------7-9-----------------------------------------------------|
|-------------------------------------------------------------------|

|--------------------------|
|--------------------------|
|-11h12-11-9h11-9h11-7-9---|
|--------------------------|
|--------------------------|
|--------------------------|
  • RaduDi
    20 ianuarie 2014 16:03
    maree atentie ia acordurile barate
  • mihpre
    26 iunie 2012 12:06
    La refren merge mai bine cu Dm la al treilea vers, decat cu F.

    Em G F Em
    Sunt de cei ce-mpusca-n luna
    Em G F Em
    Care noaptea-n frunze suna
    Em G Dm Em
    Feciori de lele nebuna
  • navzzar
    9 noiembrie 2008 19:43
    e simpla treaba...p mugur de fluier e cu D si p aniversare cu F
  • ghit razvan
    2 iulie 2008 11:20
    e Dm clar...nicidecum D
8041b56545f5de9b1966727ed467ec07