Phoenix - The Measure of a Man

  • (6 voturi)
  • Contribuție:  anonim201
Intro (capo pe fretul II):

E||------------------------0--0--------|--2----3--2----0--2----3--3--------------|
B||----------------0--0----------------|--------------------------3------3----0--|
G||--------0--0------------------------|-----------------------------------------|
D||---2--------------------------------|-----------------------------------------|
A||------------------------------------|-----------------------------------------|
E||------------------------------------|-----------------------------------------|

E|---------------------------------0---|----------------------------------------||
B|-----------------1------1--------1---|---------3------------------------------||
G|----------2-------------0--------0---|--2-------------2------0--------0----0--||
D|------------------------2------------|-----------------------2--------2----2--||
A|--0---------------------3------------|-----------------------2--------2----2--||
E|-------------------------------------|----------------------------------------||

*se repeta de 2 ori



(capo pe fretul II)

    Em         Am
Not how did he die
   D          G
But how did he live
    Am          C
Not what did he gain
    D           Em
But what did he give x2


Refren:
Em            Am
These are the units
   D           G
To measure the worth
     Em        C
Of a maaaaaaaaan
  D           Em
Regardless of birth x2

Intro

Was he ever ready
With a sword of good cheer
To bring back a smile
To banish a tear x2

Refren x2

Intro x2

Not what was his station
But had he a heart
And how did he play
His God-given part x2

Refren x2
Refren x2 (sau intro x2)

Intro x2

*Nota: La intro mai am putin de lucru, pana il finalizez se poate canta si pe asta