Phoenix - Timisoara

  • (1 voturi)
  • Contribuție:  Trooper
Intro:
Blockflote         Vioara
e--7--------------|------------------|
B-8-10-8-7-------7|-7-5-4-5-7-5-4-5-7|
G----------9-7-9--|------------------|
D-----------------|------------------|
A-----------------|------------------|
E-----------------|------------------|

Blockflote         Vioara  
e--7--------------|-------------------|
B-8-10-8-7--------|-------------------|
G----------9-7-9--|-9-9-11-12-14-12-11|
D-----------------|-------------------|
A-----------------|-------------------|
E-----------------|-------------------|

Em           G   Am
Dus e spre apus cel haiduc,
Em       Am      D     Em
Noaptea nu-l mirosi dusmanul.

e------------|
B------------|
G------------|
D-2-2-4-5-4-2|
A------------|
E------------|

Em           G
Cu pantaloni stramti,
Am         Em
Pleata pe umeri,
Am        D       Em
Urca-n tramvai hatmanul.

e------------|
B------------|
G------------|
D-2-2-4-5-4-2|
A------------|
E------------|

G         D
Pe unde o fi
Am         G
Galben canarul?
Em         G       Am    
Drumul e ascuns, ceturi verzi,
Em           Am    D      Em
Zboara prin valvatai sarmanul.

e------------|
B------------|
G------------|
D-2-2-4-5-4-2|
A------------|
E------------|


Zici c-au trecut ani, dusi am fost,
Iata azi ne-am intors acasa.
Gipsy si golani, fara ani,
Mama ne-asteapta cu flori pe masa.

Pe unde o fi ceata voioasa?
Sta mama-n pridvor,
Singura, trista,
Tata-i plecat de-acasa...

Em          D
Nu pot sa cred,
             Em
Suntem in Timisoara,
    G       D                   
In orasu-n care ne-am nascut, in
Am               Em
Vremuri ce-au trecut.

Em         D
Veniti cu noi
              Em
Tineri din Timisoara,
       G      D           
Sa cantam si sa ne bucuram,
Am          Em
Jalea s-o uitam.

C           D
Vai ce bine, vai ce bine
C           D
Timisoara, Timisoara,
C            D
Sunt acasa, sunt cu tine
C            D         D
Timisoara, Timisoara, hei...


Fug inspre apus, hoti de rai,
Cauta si-ai sa le afli hramul.
Trec falnicul drum, plin de fum,
Mugur de fluier rasuna anul.

Pe unde o fi
Fata padure?
Drumul e ascuns, pe carari
Foc si fum are sa indure.

Veniti cu noi
Tineri din Timisoara,
S-aratam ca fruntea-i in Banat
Tarii-n lung si-n lat.
Veniti cu noi
Tineri din toata tara,
Sa cantam si sa ne bucuram,
Jalea s-o uitam.
Veniti cu noi...Timisoara!
  • haralambie_harpalete
    28 mai 2014 22:58
    Bucata „galben canarul” se termină în Si major, nu Sol, cum e greșit trecută aici.
  • metallic
    17 august 2009 10:28
    Em G
    Cu pantaloni stramti,
    Am C
    Pleata pe umeri,
6Ld5REUUAAAAAA1PBEDya2BDGnf5rYKeKnmYm4Cz
75eeaa31dd8447b6bc95ec32f638ac7d