Phoenix - Toamna

  • (1 voturi)
  • Contribuție:  anonime
Riff1 

e-------------------------------- 
B-------------------------------- 
G-----------3-----2-------------- 
D-----3--5-----5-----3--5-5~~~--- 
A--5----------------------------- 
E-------------------------------- 

e---------------------------- 
B-----------3--------------- 
G--------------5---3--2------- 
D-----3--5--------------5~~-- 
A--5------------------------- 
E---------------------------- 

Sus pe dealuri toamna pune.... 
Miristi galbene-n lumina.... 

Riff2 
e--------------------------------- 
B--------------------------------- 
G--------------------------------- 
D------------6-----5-------------- 
A------6--8-----8-----6--8-8~~~--- 
E---8----------------------------- 

e------------------------------ 
B------------------------------ 
G-----------5------------------ 
D--------------8---6--5--------- 
A-----6--8--------------8~~~--- 
E--8--------------------------- 

Araturi ca de carbune.... 

e------------------------------- 
B------------------------------- 
G--12--12--10-10-8--8--7--7----- 
D--12--12--10-10-8--8--7--7----- 
A--10--10--8--8--6--6--5--5----- 
E------------------------------- 

Si mohoare de rugina....