Phoenix - Vara

[Intro - chitara]
|--------------0------------|--------------0------2--3--|
|--------0-1-----2----3-----|--------0-1-----2----------|
|----0-------2-----2-----4--|----0-------2-----2--------| x2
|------4--------------------|------4--------------------|
|--2------------------------|--2------------------------|
|---------------------------|---------------------------|

[Intro - bass]
|---------------------------|---------------------------|
|---------------------------|---------------------------| x2
|---------------------------|------2-------0------0--2--|
|---------------------------|--0-2---0-1-2---2-0--------|

Acorduri:
E = 022100
G = 320003
A = x02220
D = x00232
C = 332010


E  G  A       D  G   x4

[Vers 1]
E  G  A     D    G
Dorm,   lanurile coapte 
E  G  A         D   G
Dorm,   soaptele de dor 
E  G  A       D     G
Lin,    curge peste noapte 
E  G  A       D   
Mut,    visul calator

G      A   C   D
Doarme toropit pamantul
G      C   A      D
Si viseaza ploaia si vantul
G        A    C     D
Buzele-i sunt adanc crapate
G     C       A   D
Apa-o cauta-n vis insetate


[Vers 2]
E  G  A         D  G
Lungi,  noptile de nalbe
E  G  A        D  G
Lungi,  noptile calde
E  G  A     D     G
Fug,    limpede izvoare 
E  G  A     D     G
Fug,    razele de soare


G      A     C   D
Ochiul cauta mut imprejur
G     C     A       D
Umbra deas-a codrului cel sur
G   A        C   D
Dar peste intreg pamantul
G     C    A     D
Vara si-a intins cald trupul


[Vers 3]
E  G  A        D    G
Sus,    cerul e-mpietrit 
E  G  A       D     G
Sus,    norii au pierit
E  G  A     D       G
Jos,    fructele se coc cu 
E  G  A        D      
Spor,   in luna lui cuptor 

G      A     C        D
Ochiul cauta mut imprejur
G      C     A           D
Umbra deas-a codrului cel sur
G      A    C      D
Dar peste intreg pamantul
G    C      A    D
Vara si-a intins cald trupul

[Intro]


[Solo Bass, improvizat in E dorian]
Solo-ul se termina cu reintoarcere la [Intro - bass]
|---------------------------|
|---------------------------| x2
|------2-------0------0--2--|
|--0-2---0-1-2---2-0--------|

[Intro] 

[Vers 1]
E  G  A     D    G
Dorm,   lanurile coapte 
E  G  A         D   G
Dorm,   soaptele de dor 
E  G  A       D     G
Lin,    curge peste noapte 
E  G  A       D   
Mut,    visul calator

G      A   C   D
Doarme toropit pamantul
G      C   A      D
Si viseaza ploaia si vantul
G        A     C    D
Buzele-i sunt adanc crapate
G     C       A   D
Apa-o cauta-n vis insetate

[Outro - ca Intro]

Transpunerile de pe acest site reprezintă viziunea personală a utilizatorilor asupra pieselor.
3cdc3da26fd197066bc70ba2c71539ae
f7e9d1d2-ebba-44ba-8198-e810bddf71a6