Phoenix - Vasiliscul si Aspida (intro pt varianta)

  • (4 voturi)
  • Contribuție:  Loverman
I. x2                                II. x2
e~|------------------------------------|----------------------------------------||_
B~|------------------------------------|----------------------------------------||_
G~|---2-2-2-0-2-4-55--7-4-5--2-4-0--2--|--7-4-5--2-4-0--22-----7-4-5--2-4-0--2--||_
D~|--2---------------------------------|----------------------------------------||_
A~|------------------------------------|----------------------------------------||_
E~|------------------------------------|----------------------------------------||_

Se repeta fiecare parte, ascultati melodia...iar linia tinuta de voce 
imi suna a fi o septima fata de cea pe care am scris-o mai sus.

I.
Mult te rog iti fac ispita vrednic fabulist
Zi-mi ceva de o aspida si de-un vasilisc
II.
Inima-i rasbita, sufletul ucis
De colti de aspida, ochi de vasilisc.
  • An3
    22 martie 2009 22:06
    E bun tab-ul, dar eu o aud putin diferit:

    G|---2-2-2-----2-4-5-5---7-4-5--2-4-0-2-2-|-5-4-7--2-4-0--2-2---4-5-7--2-4-0-2-2-|
    D|-2-------3-5---------------------------------|--------------------------------------------|
6Ld5REUUAAAAAA1PBEDya2BDGnf5rYKeKnmYm4Cz
695c445bb0de320b0aee2a022917658a