Pistol cu capse - Mai Mereu (unplugged)

Piesa este cantata in acordaj normal, capo pe fret-ul 3.

Intro/Outro:
e|--------------------------------------------------------|
B|--------------------------------------------------------|
G|-------5--------5-----------------7---------7-----------|
D|---------0--------0------------------5---------5--------|
A|------------------------------7----------7--------------|
E|----3---------3-----------------------------------------|

e|--------------------------------------------------------|
B|--------------------------------------------------------|
G|--------0-----------0-------------7---------7-----------|
D|-----------2----------2--------------7---------7--------|
A|----3------------3-------------5---------5--------------|
E|--------------------------------------------------------|

Vers/Refren: 
e|-----0-----0-----0------0-------------------------------|
B|-----1-----3-----3------0-------------------------------|
G|-----0-----4-----0------0-------------------------------|
D|-----2-----5-----4------2-------------------------------|
A|-----3-----5-----5------2-------------------------------|
E|-----3-----x-----5------0-------------------------------|