Pistol cu capse - Simplu si Usor

  • (1 voturi)
  • Contribuție:  ghit razvan
  • Ultima actualizare: 29.01.2010
Ritm de ska...

ACORDURI FOLOSITE:


      G#    D#     Cm     Fm     C#
e|----4-----6------3-------8------4------------------------|
B|----4-----8------4-------9------6------------------------|
G|----5-----8------5-------10-----6------------------------|
D|----6-----8------5-------10-----6------------------------|
A|---------------------------------------------------------|
E|---------------------------------------------------------|

G#                                D#
Nu prea mai sunt multe cuvinte de spus
                      G# 
Atunci cand soarele-a apus
                          D#
Sunt intrebari multe fara raspuns
                               Cm
Si toate visele atunci ti s-au dus
             Fm                 Cm
Si-ar fi mai simplu si mult mai usor
             Fm 
Nu iti pese uneori
Cm           Fm                 Cm 
Sa uiti de tot, macar pentru un minut
                 Fm   
Nu regreti ce ai facut


AICI APARE UN INTERLUDIU SAU HABAR NU AM CUM SA-L NUMESC, DAR E CEVA DE GENU:


e|---------------------------------------------------------|
B|---------------------------------------------------------|
G|---17--13--17--12-------13--12--13--12-------------------|
D|---x---x---x---x--------x---x---x---x--------------------|
A|---15--11--15--10-------11--10--11--10-------------------|
E|---------------------------------------------------------|


G#                       D#
Iar daca pozele-ar putea vorbi
                 G# 
Atunci in locul lor as fi
                                    D#
Intr-un album ce-ar sta deschis zi de zi
                             Cm
Si doar atunci sunt sigur voi sti
            Fm              Cm  
C-ar fi mai simplu la fel de usor
               Fm
Uiti de tine uneori


AICI VINE UN BRIDGE, INAINTE DE REFREN:

     G#     A#     C#
e|---------------------------------------------------------|
B|---------------------------------------------------------|
G|---------------------------------------------------------|
D|---6------8------11--------------------------------------|
A|---6------8------11--------------------------------------|
E|---4------6------9---------------------------------------|



     G#           D#         
REF: Stai sa vezi si-ai sa crezi
     Fm           C#           G#
     O alta zi si timpul se va opri in loc
     D#         Fm        C#             G#
     Nu ma lasa s-astept imi place sa te privesc
     D#                     Fm    
     Atunci cand visezi cu ochii deschisi



APOI ACELASI "INTERLUDIU"...


e|---------------------------------------------------------|
B|---------------------------------------------------------|
G|---17--13--17--12-------13--12--13--12-------------------|
D|---x---x---x---x--------x---x---x---x--------------------|
A|---15--11--15--10-------11--10--11--10-------------------|
E|---------------------------------------------------------|


E un final ce pare fara sfarsit
Ar trebi sa stiu unde-am gresit
Parca nimic nu s-ar fi-ntamplat
Am adormit si poate-am visat
C-ar fi mai simplu la fel de usor
Sa nu-ti pierzi capul printre nori

APOI ACELASI BRIDGE SPRE REFREN:

  G#     A#        C#
e|---------------------------------------------------------|
B|---------------------------------------------------------|
G|---------------------------------------------------------|
D|---6------8------11--------------------------------------|
A|---6------8------11--------------------------------------|
E|---4------6------9---------------------------------------|



     G#           D#         
REF: Stai sa vezi si-ai sa crezi
     Fm           C#           G#
     O alta zi si timpul se va opri in loc
     D#         Fm        C#             G#
     Nu ma lasa s-astept imi place sa te privesc
     D#                     Fm    
     Atunci cand visezi cu ochii deschisi


SI IN FINAL INTERLUDIUL SE CANTA PE ULTIMUL VERS:

Cu ochii deschisi..... e simplu si usor.