Plus Noi - Criticilor mei

Plus noi - Criticilor mei
Muzica si text : Stelian „Padre” Petrescu

Capodastru pe tasta 4

intro:
E|------------------------|--------------------------|
B|----------3----------0--|-----------0--1--0--1--0--|
G|---------------0--------|--------0-----------------|
D|-------2----------2-----|-----2--------------------|   X 3
A|------------------------|--3-----------------------|
E|--0---------------------|--------------------------|

  ^     ^  v    v  ^  v     ^  v  ^  v    v  ^  v 
  Q     E  Q    E  E  E     E  E  E  Q    E  E  E  
--------0--0----0--0-----|--0--0--0--0----0--0-----|
--------0--0----0--0--0--|--3--3--3--3----3--3--0--|
--0-----0--0----0--0--0--|--0--0--0--0----0--0--0--|
--2-----2--2----2--2--0--|--2--2--2--2----2--2--0--|   X 2 
--2-------------2--2--0--|--3-----3--3----3--3-----|
--0-------------0--0-----|-------------------------|

Str.1
Em                   Cadd9
Sunt ca o carte fara scris
Em                   Cadd9
Cu scoarta stramba fara foi
Em                   Cadd9
Sunt o poveste de demult
Em                   Cadd9
Fara morala sau eroi...

Ref:
G                      Cadd9
Si daca va-ntrebeti cumva
G                       Cadd9
Cine sunt, totusi, unde merg?
G                        Cadd9
Si de veti da tot voi raspunsul
G                     Cadd9
Eu va promit ca o sa neg


Pe chestia asta vine solo-ul
( G  C9 )( G  C9 )( G  G )( Em  C )( Em  C )( Em  C9 )

Cele doua Em de mai sus se canta cam asa:
  ^     ^  v    v  ^  v     ^  v  ^  v   v  ^   ^  ^  
  Q     E  Q    E  E  E     E  E  E  E   E  E   E  E   
--------0--0----0--0-----|--0--0--x--0---0--0---0-----|
--------0--0----0--0--0--|--1--1--x--0h--1--0h--1--0--|
--0-----0--0----0--0--0--|--0--0--x--0---0--0---0--0--|
--2-----2--2----2--2--0--|--2--2--x--2---2--2---2--0--|
--2-------------2--2--0--|--3-----x--3---3--3---3-----|
--0-------------0--0-----|----------------------------|

Solo:

 (Capo 4)
E|-------------------------|-----------------------|
B|-------------------------|-----------------------|
G|-------2s-4--------2-----|--0---------0--2-------|
D|-------------------------|---------2-------------|
A|-------------------------|-----------------------|
E|-------------------------|-----------------------|


|--------------------------|-----------------------|
|-----------------3--------|-----------------------|
|-------2s-4---------2-----|--0---------0--2-------|
|--------------------------|---------2-------------|
|--------------------------|-----------------------|
|--------------------------|-----------------------|

 
|--------------------------|--------------------------|
|--------3--------3--------|--3--------3--------3--3--|
|--0--2-----0--2-----0--2--|-----0--2-----0--2--------|
|--------------------------|--------------------------|
|--------------------------|--------------------------|
|--------------------------|--------------------------|


|----------------------------------|--------------------|
|--5----8p-5--10--11s--10--8s-10---|--8-----------------|
|----------------------------------|--------------------|
|----------------------------------|--------------------|
|----------------------------------|--------------------|
|----------------------------------|--------------------|

 
|----------------------------------|--------------------|
|--5----8p-5--10--11s--10--8s-10---|--8-----------------|
|----------------------------------|--------------------|
|----------------------------------|--------------------|
|----------------------------------|--------------------|
|----------------------------------|--------------------|


|--------------------------|---------------------------|
|-----------------3--------|---------------------------|
|-------2s-4---------4--2--|--0--------2-----0--------*|
|--------------------------|--------2-----2--------2--*|
|--------------------------|---------------------------|
|--------------------------|---------------------------|


Str.2
Em                   Cadd9 
Eu sunt un rau fara izvor   
Em                   Cadd9 
Si o cometa fara coada  
Em                   Cadd9  
Sunt trenul fara destinatii  
Em                   Cadd9      
Si ploaia ce nu vrea sa cada

Ref + solo


Str.3
Em                   Cadd9
Sunt un portret neterminat
Em                   Cadd9
Cateva linii, niste umbre  
Em                   Cadd9
Sunt un desert fara nisip 
Em                   Cadd9
Si-un dans lasciv de fete strambe

Ref + solo + ending (cam la fel ca si la intro...)



Imi pare rau pentru solo-ul de la guitar pro, nu suna chiar ca si originalul in unele
locuri, dar ce sa faci, nu se poate pricepe omul la toate... stau rau cu pauzele:))
In orice caz, va rog sa veniti cu retusuri...