Poesis - 2000 de Ani

Cu sau fara Capo pe II.

Intro:

   D(V)     A(V)      G(III)    A
e|-x--5-----x-x--5----x--5-----x-x--5---|
B|-7---7----5-5---5---3---3----2-2---2--|
G|-7----7---6-6-------4----4---2-2----2-|
D|-0--------7-7-------5--------2-2------|
A|--------------------------------------|
E|--------------------------------------|

   Dsus4           D(V)     A9sus4
e|-5--5---5---5-------5--------0--------|
B|-3---3---3---3-----7-7------3---------|
G|-0----0---0---0---7---7----4----------|
D|-0---------------0--------5-----------|
A|-------------------------0------------|
E|--------------------------------------|


D              A7sus4
Tu esti lumina de luni dupa-amiaza,
Bm           Bm11            G    G/F# 
Tu esti fara doar si poate a mea,
Em7     Em7/F#  G    D 
Ingerul care    ma vegheaza
Em7        Em7/F#  G     A9sus4 
Vinerea si sigur   duminica.

Tu ai dimineata pofta de joaca.
Imi pui poza ta in buzunar,
Si-apoi imi spui "nu-i nimic o sa-ti placa,
Em7          Em7/F#  G      Asus4 A 
Am sa fiu cu tine    iar si iar".


Refren:

D            A7sus4 
Parca ar fi, parca n-ar fi,
Bm                Bsus2 
Parca m-as indragosti.
Em            Em7 
Voi ramane cu tine
G            A7 
Inca 2000 de ani.
D            A7sus4 
Parca ar fi, parca n-ar fi,
Bm                Bsus2 
Parca m-as indragosti.
Em            Em7 
Voi ramane cu tine
G            A7 
Inca 2000 de ani.
Gm      Intro 
2000 de ani

Tu esti lumina de luni dupa-amiaza
Ma are in paza dragostea ta.
De-acum inainte ce mai conteaza
Fara doar si poate esti a mea.

-------------------------
A7sus4  Bm11
x02030  004430

G       G/F#
320033  200033

Em7    Em7/F#
022030 200030

Bsus2   Asus4
x24422  x02230

A7
x02020

Transpunerile de pe acest site reprezintă viziunea personală a utilizatorilor asupra pieselor.
8a6cf8b30df839e0e10c27110c170ae8
f7e9d1d2-ebba-44ba-8198-e810bddf71a6