Poesis - Ce sa-ti aduc, iubito, de pe mare?

  • (1 voturi)
  • Contribuție:  Petre A.
  • Ultima actualizare: 14.08.2010
Intro:

     Asus4                       Asus2                       
      
E||-------------------0-------|-------------------0--------||
B||--------------3-------3----|--------------0-------0-----||
G||-----------2------------2--|-----------2------------2--*||
D||--------2------------------|--------2------------------*||
A||--0------------------------|--0-------------------------||
E||---------------------------|----------------------------||

Strofa:


  Asus4                  Asus4add13                  Asus4add9                
      
-----------------0----|----------------------0----|---------------------0----|
--------------3-------|-------------------3-------|------------------3-------|
-----------2----------|----------------2----------|---------------4----------|
--------2-------------|-------------4-------------|------------2-------------|
--0-------------------|--0------------------------|--0-----------------------|
----------------------|---------------------------|--------------------------|
Ce să-ţi              aduc,    iubito,                  de    pe
              o       întrebă în şoaptă               într-o 
 
 E/A                  Asus4                  Asus4add13                
    
---------------0----||-----------------0----|----------------------0----|
------------0-------||--------------3-------|-------------------3-------|
---------4----------||-----------2----------|----------------2----------|
------6-------------||--------2-------------|-------------4-------------|
--0-----------------||--0-------------------|--0------------------------|
--------------------||----------------------|---------------------------|
mare?                   din insule             pierdute-n
  zi.
  Aadd11               Asus4     Asus4/C#   Asus4/B     Asus4          
 
--------------------||----------------------------------------------0--|
---------------2----||----------3----------3-----------3---------3-----|
------------2-------||--------2------------2---------2---------2-------|
---------0----------||-------------------------------------------------|
--4-----------------||--5---------4----------2-----------0-------------|
--------------------||-------------------------------------------------|
  de  -     partare           cea mai         frumoasa

          

|----------------------||
|--------------2------*||
|-----------2---------*||
|--------2-------------||
|--0-------------------||
floare care-o fi

Mi-a placut foarte tare aceasta piesa asa ca i-am scos tabulatura pentru ca era prea faina 
sa nu o fac.Si...cam asta este. Enjoy!! (Poesis...cam tare!;) )