Poesis - Nu Stiu In Ce Parte Se Afla Apusul

  • (1 voturi)
  • Contribuție:  vasib
  • Ultima actualizare: 08.07.2014
   Dm             C 
e|-13---13-12-10--8---8-10-8--------|
B|-10--10-----10--8--8-----8--------|
G|-10-10------10--9-9------9--------|
D|----------------------------------|
A|----------------------------------|
E|----------------------------------|

   Bb          A
e|-6---6-8-6---5---5-5-5------------|
B|-6--6----6---5--5--5-5------------|
G|-7-7-----7---6-6---6-6------------|
D|----------------------------------|
A|----------------------------------|
E|----------------------------------|

   Dm             C 
e|-13---13-12-10--8---8-10-8--------|
B|-10--10-----10--8--8-----8--------|
G|-10-10------10--9-9------9--------|
D|----------------------------------|
A|----------------------------------|
E|----------------------------------|

   Bb     A   Dm
e|-6-6----5---10--------------------|
B|-6-6----5- -10--------------------|
G|-7-7- --7---10--------------------|
D|----------------------------------|
A|----------------------------------|
E|----------------------------------|

        Dm           C       Dm    C
Unii-mi spun ca esti inca frumoasa  
   F             G(III)         Am  
Eu nu te mai vad azi in nici-un fel 
F        G(III)   F    G(III)       
Altadata vietuiam in coliba         
     Bbmaj7    C        Bb* Dm* Dm
Si visam ca traim in castel
Bb* Dm* Dm


Poti sa ma duci intr-o vale adanca
Si sa-mi spui ca ma porti pe campie
Ori despre-un crang de marunte vlastare
Sa-mi spui ca-i o batrana vlasie
Bb* Dm* Dsus2*



Refren:

Am                     G
Nu stiu in ce parte se afla apusul
Am               G
Nici rasaritul incotro vine
Em              Asus4
Unii-mi spun cu cat esti mai orb
                         A*
Cu-atat lumea o vezi mai bine


(Intro)


Nu-mi mai vad nici macar mainile
Cand le duc la gura sa mi le musc
Altadata ocheam Steaua Polara
Si trageam in ea s-o impusc

Unii-mi spun ca esti inca frumoasa
Eu nu te mai vad azi in nici-un fel
Altadata vietuiam in coliba
Si visam ca traim in castel

     Bb*       Dm*      Dm
Si visam ca traim in castel
     Bb*       Dm*      Dsus2*
Si visam ca traim in castel


(Refren)


----------------------
Bbmaj7
xx3335

Bb*    Dm*
xx0331 xx0031

Dsus2* A*
xx2235 xx2225

Asus4
xx2235
  • vasib
    19 august 2010 21:00
    Se mai poate lucra, desigur; eu am luat piesa de aici: http://www.youtube.com/watch?v=CEkKjUIV0n4&feature=related
  • Petre A.
    13 august 2010 04:09
    Tabulatura pe inceput nu e prea ok...in rest e foarte buna!;)