Popas Band - Ea ma minte

  • (1 voturi)
  • Contribuție:  guitarfella95
  • Ultima actualizare: 11.10.2010
Intro:

e|------------------------------14---------------|
B|--12-14-14b-r14p12------14\16----16~--16~-14~--|
G|-------------------11~-------------------------|
D|-----------------------------------------------|
A|-----------------------------------------------|
E|-----------------------------------------------|

e|------------------------16-14----------------------------------|
B|--12-14-14b-r14p12------------16-14---12-14-14b-14~--12\11-----|
G|-------------------11~-------------------------------------13~-|
D|---------------------------------------------------------------|
A|---------------------------------------------------------------|
E|---------------------------------------------------------------|

G#m                      E                  B    F#
Ea imi spune cuvinte ce vor sa m-alinte. Eu tac.
        G#m              E                  B    F#
Si imi spune ce simte si cat se aprinde, si tac.
        G#m                 E                   B     F#
Fiindca stiu ca ma minte, lumina s-aprinde. Ma-mbrac.
       G#m                  E                F#
Si pornesc catre casa pe strada cetoasa, si tac!


(Pre-Refren)
       E
Si in cap am doar o-ntrebare:
       F#
Oare iubitul ei o iubeste mai tare?


(Refren)
G#m             B             F#
Eeeeii, ea ma minte cate-o noapte-ntreaga.
G#m            B           F#
Eeeeii, ea ma minte, insa tot mi-e draga.
G#m             B           F#
Eeeeii, ea i-l minte si-n brate-mi vine.
G#m                B           F#          G#m
Eu o mint ca mi-e bine, ne vedem si maine iar.

G#m                      B                 B      F#
Ea viseaza cuminte, iar azi nu ma simte. Ciudat!
        G#m               B                F#
Si imi spune si vrute nevrute dar parca ar tacea.
       G#m              B                   B     F#
Ma priveste tacuta, si stiu c-o sa-mi spuna ceva.
      G#m                B                F#
Pe obraz ma saruta, ma invita la nunta la ea.


capo pe IV:   Em  C  G  D