Praf în Ochi - O mie de ganduri (GuitarPro intro)

     Emadd9                   Cadd9                             
     E      E  E  E  E  E  E  E        E  E  E  E  E  E  E  E   
E||---------------------------------|--------------0-----------|
B||---------------------------------|--------3--------3--------|
G||------------------0--------------|-----0-----0--------0-----|
D||------------4--------4-----------|-----------------------2--|
A||---------2-----2--------2--3-----|--L-----------------------|
E||--0------------------------------|--------------------------|


  Am                   D                                   
                       ^                                   
                                         |--3--|           
  E  E  E  E  E  E  E  E     E  E  E  E  S  S  S E  E  E   
-----------------------2--|--L-----------2h-3p-2----------|
--------------1--------3--|--L--3-----3----------3--------|
--------2--------2-----2--|--L-----2----------------2-----|
-----2-----2--------2--0--|--L-------------------------0--|
--0-----------------------|-------------------------------|
--------------------------|-------------------------------|


  Emadd9                   Cadd9                             
  E      E  E  E  E  E  E  E        E  E  E  E  E  E  E  E   
---------------------------------|--------------0-----------|
---------------------------------|--------3--------3--------|
------------------0--------------|-----0-----0--------0-----|
------------4--------4-----------|-----------------------2--|
---------2-----2--------2--3-----|--L-----------------------|
--0------------------------------|--------------------------|


  Am                   D                                     
                       ^                              NH     
                                    |--3--|                  
  E  E  E  E  E  E  E  E     Q.     S  S  S  E  E     Q      
-----------------------2--|--L------2h-3p-2p-0-----<>12----||
--------------1--------3--|--L------------------0----------||
--------2--------2-----2--|--L-----------------------------||
-----2-----2--------2--0--|--L-----------------------------||
--0-----------------------|--------------------------------||
--------------------------|--------------------------------||
  • andreyppsc
    19 ianuarie 2009 19:40
    super...