Provincialii ft. Anemona - Noaptea pe covor

  • (1 voturi)
  • Contribuție:  anonim201
Intro si refren:

e|------------5--------5-----------------------|
B|------5--7-----8--------8--------5--5--7--7--|
G|---7--------------7--------6--7--------------|
A|---------------------------------------------|
E|---------------------------------------------|


e|------------5--------5-----------------------|
B|------5--7-----8--------8--------5--5--7-----|
G|---7--------------7--------6--7-----------7--|
A|---------------------------------------------|
E|---------------------------------------------|

in rest nu prea e chitara..