Publika - Unde esti

  • Contribuție:  mirzan
  • Ultima actualizare: 18.03.2011
Unde Esti                                     

                                    Publika



 Intro
E||----------0----(0)--|----------0----(0)--|----------0----(0)--|
B||----------0----(0)--|----------0----(0)--|----------0----(0)--|
G||--------------------|--------------------|--------------------|
D||-------2------------|-------2------------|--------------------|
A||--0-----------------|--0-----------------|-------2------------|
E||--------------------|--------------------|--0-----------------|


  
----------0----(0)--|----------0----(0)--|----------0----(0)--|
----------0----(0)--|----------0----(0)--|----------0----(0)--|
--------------------|--------------------|--------------------|
--------------------|-------2------------|-------2------------|
-------2------------|--0-----------------|--0-----------------|
--0-----------------|--------------------|--------------------|

                             
                       ^              Vers                                                 
----------0----(0)--|--0------------||----------0----(0)--|----------0----(0)--|
----------0----(0)--|--0------------||----------0----(0)--|----------0----(0)--|
--------------------|--1------------||--------------------|--------------------|
--------------------|--2------------||-------6------------|-------6------------|
-------2------------|--2------------||--4-----------------|--4-----------------|
--0-----------------|--0------------||--------------------|--------------------|


  
----------0----(0)--|----------0----(0)--|----------0----(0)--|
----------0----(0)--|----------0----(0)--|----------0----(0)--|
--------------------|--------------------|--------------------|
-------2------------|-------2------------|--------------------|
--0-----------------|--0-----------------|-------2------------|
--------------------|--------------------|--0-----------------|


                                                                
----------0----(0)--|----------0----(0)--|----------0----(0)--||
----------0----(0)--|----------0----(0)--|----------0----(0)--||
--------------------|--------------------|--------------------|| [X de cate ori e nevoie]
--------------------|-------4------------|-------4------------||
-------2------------|--2-----------------|--2-----------------||
--0-----------------|--------------------|--------------------||


Acordurile sunt diferite la solo, dar nu mi-am dat seama exact care sunt...
6Ld5REUUAAAAAA1PBEDya2BDGnf5rYKeKnmYm4Cz
b04e568745c24aa0b571c6f6df7e67e8