Raul Cârstea - Ca un fum de tigara, sufletul

Capo pe tasta 1

numaratoarea “0, 1, 2” e de cu capo pus, deci 0 este coarda libera cu capo pe tasta 1. 2 
(cu capo) inseamna de fapt tasta 3 (fara capo), practic consider tasta 2 pe grif fara 
capo ca fiind de fapt tasta 1 cu capo (sper ca nu e prea incalcita exprimarea) :)

inceputul:

e---0--1--2---2--------5----------2--------------0--2--0--1--2-----------------
B-------------2--------5----------3------------2----2--------------------------
G-------------2--------6----------4----------4------2--------------------------
D-------------4--------7----------4--------3--------4--------------------------
A-------------4--------7----------2------4----------4--------------------------
E-------------2--------5----------2-----------------2--------------------------

Am sa-ti spun buna seara si-am sa plec 

e---0--1--2---2-------
B-------------2-------
G-------------2-------
D-------------4-------
A-------------4-------
E-------------2-------

undeva / 			Unde nu e nimic, numai scrum, numai 

e----5--
B----5--
G----6--
D----7--
A----7--
E----5--

zat, /			Am sa-ti spun usurat, am sa-ti spun cu

e----2--
B----3--
G----4--
D----4--
A----2--
E----2--

nesat,			Ce departe va simt eu de inima mea

e----------0--
B--------2----
G------4------
D----3--------
A--4----------
E-------------



Usa-n loc va-ngheta si nimic nu va fi (de aici sunt la fel)

e---0--1--2---2-------
B-------------2-------
G-------------2-------
D-------------4-------
A-------------4-------
E-------------2-------

iar la refren mai e un acord:

Buna seara din nou, buna seara 

e---0--1--2---2-------
B-------------2-------
G-------------2-------
D-------------4-------
A-------------4-------
E-------------2-------
adanc/			Doamne dragi, domni stimati, eu am treaba, 

e----7-- (nu sunt foarte sigur de acordul asta, mai caut putin)
B----9--
G----9--
D----9--
A-------
E-------

eu plec/			Si pe urma aici e un fum de 

e----5--
B----5--
G----6--
D----7--
A----7--
E----5—



ma-nec/ 			Nu-nteleg de ce parca...imi vine

e--0----------
B--2----------
G--4----------
D--3----------
A--4----------
E-------------


sa plang 

e---2--0--1--2---
B---2------------
G---2------------
D---4------------
A---4------------
E---2------------

cam asta e melodia cu strofa si refrenul
ritmul il gasiti cel mai bine ascultand melodia cu casti :)

daca am gresit ceva, astept cu placere sugestii la catalin.bucura@gmail.com