ROA (Rise of Artificial) - Sonata in La Minor

  • (2 voturi)
  • Contribuție:  forteleaeriene
  • Ultima actualizare: 01.02.2012
ROA - Sonata In La Minor 

Acesta este introul, intre 0:00-0:09


E------------------0-------------------0--
B----0-0-0h1p0h1---------0-0-0h1p0h1------
G--2-------------2-----2-------------2----
D-----------------------------------------
A--0-0-0-0-------------0-0-0-0------------
E------------------0-------------------0--


E-----3/5-5/3-0-0------------------0--
B--------------------0-0h1p0h1--------
G------------------------------2------
D-------------------------------------
A----------------------0--------------
E----------------------------------0--


“h”= hammer on
“p”= pull off 
“/” “”= silde

Restul melodiei se canta cu acordul La minor (ca doar de aia se numeste Sonata in La 
minor), cu bataia Jos, Jos, Sus, Sus, Jos, Sus.


La minor (Am)

E--0-----------------
B--1-----------------
G--2-----------------
D--2-----------------
A--0-----------------
E--X-----------------

Coarda insemnata cu “X” nu se canta!


Mult success!
6Ld5REUUAAAAAA1PBEDya2BDGnf5rYKeKnmYm4Cz
45db5be7dabc9c6919ac8253e1e7c733