Robin and the Backstabbers - Cand te-am cunoscut Cristina

Descarcati tabul si veti gasi acordurile (dupa ureche) si ritmul . 
Ascultati melodia atent si o sa iasa.

E ||---------------------------|----------------------------|
B ||----3-----3--------3-------|----------------------------|
G ||o---4-----4--------4-------|-----4-----4--------4-------|
D ||o---4-----4--------4-------|-----5-----5--------5-------|
A ||-2--2-----2--2-----2-------|-----5-----5--------5-------|
E ||---------------------------|--3--3-----3--3-----3-------|


----------------------------|---------------------||
----------------------------|--------3------------||
-----3-----3--------3-------|-----4-----4--------o||
-----4-----4--------4-------|--------------------o||
-----4-----4--------4-------|--2-----------0--1---||
--2--2-----2--2-----2-------|---------------------||


----------------------------|-----3-----3--------3-------|
-----3-----3--------3-------|-----3-----3--------3-------|
-----4-----4--------4-------|-----4-----4--------4-------|
-----4-----4--------4-------|--5--5-----5--5-----5-------|
--2--2-----2--2-----2-------|----------------------------|
----------------------------|----------------------------|


----------------------------|-----2-----2----------------||
-----2-----2--------2-------|-----3-----3----------------||
-----2-----2--------2-------|-----2-----2--------3-------||
--2--2-----2--2-----2-------|--0-----------------4-------||
----------------------------|--------------------4-------||
----------------------------|--------------2-----2-------||