Robin and the Backstabbers - Minciuna mai mare nu am

  • (1 voturi)
  • Contribuție:  Bo$$$$
  • Ultima actualizare: 14.06.2015
INTRO: F; C
e|-----------1------------|
B|---------1--------------|
G|----2-3-----------------|
D|--3---------------------|
A|------------------------|
E|------------------------|


F
Generaţia mea e o casă în flăcări
 Dacă baţi la uşă, se dărâmă tot.
 Generaţia mea e o casă de umbre
 Dacă minţi destul, ţi se iartă tot. 

Dm
Mi-am pus costumul de scafandru,
                                            F
 m-am aruncat în patul tău. 

    Bb    A       Ab G  F
e|----------------------------|
B|----------------------------|
G|----------------------------|
D|----------------44----------|
A|--1111-0000-----------------|
E|----------------------------|

e|-----------1------------|
B|---------1--------------|
G|----2-3-----------------|
D|--3---------------------|
A|------------------------|
E|------------------------|





F

Panică şi voie bună În oglindă lume bună 

O generaţie, o minciună
Ne stă bine împreună.


e|-------------------------------|
B|-------------------------------|
G|---------------------0---------|
D|---3-0---0-----0--3-----3-0----|
A|-------3----3------------------|
E|-------------------------------|

F
 Generaţia mea e-o statuie furioasă 
Dacă-ncerci să mişti, se complică tot. 
Generaţia mea e-o minciună frumoasă 
Dacă-ncepi să crezi, ţi se iartă tot.
Dm
 Mi-am pus costumul de scafandru,
                                     F
 m-am aruncat în patul tău. 
F
Panică şi voie bună În oglindă lume bună 
O generaţie, o minciună Ne stă bine... 
Minciună mai mare nu am
 Minciună mai mare nu am
 Minciună mai mare nu am
 Minciună mai mare nu am, 
boierule Minciună mai mare nu am