Robin and the Backstabbers - Scafandru

Acordaj: DGDFAd (full step down, cu coarda 3 in standard)
 = armonica naturala pe tasta x
/ = slide up
 = slide down


Riff principal:

d|------0---------0------------------------|
A|-----------------------------------------|
F|----------<9>-------------<7>---------<5>|
D|<9>-----------------<7>---------<5>------|
G|-----------------------------------------|
D|-----------------------------------------|    x32


                                  Da   că
'ntreabă   cineva,   ești cu mine...
d|-----------------------------------------|
A|-----------------------------------------|
F|----------<9>-------------<7>---------<5>|
D|<9>-----------------<7>---------<5>------|
G|-----------------------------------------|
D|-----------------------------------------|


Chitara ritm (DGCFAd):

(Dacă-ntrebă cineva, ești cu mine...)

    D
d|--------------------------------|--------------------------------|---------------------------------|--------------------------------|
A|--------------------------------|--------------------------------|---------------------------------|--------------------------------|
F|--------------------------------|--------------------------------|---------------------------------|--------------------------------|
C|--------6-----------------------|--------6-----------------------|--------6------------------------|--------6-----------------------|
G|7---7-------7---7---7---5---6---|7---7-------7---7---7---5---6---|7---7--------7---7---7---5---6---|7---7-------7---7---7---5---6---|
D|--------------------------------|--------------------------------|---------------------------------|--------------------------------|


(Ascultă, a început deja...)
D|--------------------------------|--------------------------------|
d|--------------------------------|--------------------------------|
A|--------------------------------|--------------------------------|
F|--------------------------------|--------------------------------|
C|--------------------------------|--------------------------------|
G|0---0---1---1---0---0-----------|0---0---1---1---0---0-----------|
D|------------------------3---3---|------------------------3---3---|


Pre-refren: 

   D5                               D5                               G5                                F#5
d|--------------------------------|--------------------------------|--------------------------------|--------------------------------|
A|--------------------------------|--------------------------------|--------------------------------|--------------------------------|
F|--------------------------------|--------------------------------|--------------------------------|--------------------------------|
C|2---2---2---2---2---2---2---2---|2---2---2---2---2---2---2---2---|7---7---7---7---7---7---7---7---|5---5---5---5---5---5---5---5---|
G|2---2---2---2---2---2---2---2---|2---2---2---2---2---2---2---2---|7---7---7---7---7---7---7---7---|5---5---5---5---5---5---5---5---|
D|0---0---0---0---0---0---0---0---|0---0---0---0---0---0---0---0---|5---5---5---5---5---5---5---5---|3---3---3---3---3---3---3---3---| x2


Refren:

                                              (Liniștea nu înseamnă lipsa muzicii...)

  A5                                A5                               G5                               G5
d|--------------------------------|--------------------------------|--------------------------------|--------------------------------|
A|--------------------------------|--------------------------------|--------------------------------|--------------------------------|
F|--------------------------------|--------------------------------|--------------------------------|--------------------------------|
C|9---9---9---9---9---9---9---9---|9---9---9---9---9---9---8---8---|7---7---7---7---7---7---7---7---|7---7---7---7---7---7---10--9---|
G|9---9---9---9---9---9---9---9---|9---9---9---9---9---9---8---8---|7---7---7---7---7---7---7---7---|7---7---7---7---7---7---10--9---|
D|7---7---7---7---7---7---7---7---|7---7---7---7---7---7---6---6---|5---5---5---5---5---5---5---5---|5---5---5---5---5---5---8---7---| x3
					
					(Invazie nu înseamnă doar soldați și tancuri...)

  A5                                A5                               B5                               C5
d|--------------------------------|--------------------------------|--------------------------------|--------------------------------|
A|--------------------------------|--------------------------------|--------------------------------|--------------------------------|
F|--------------------------------|--------------------------------|--------------------------------|--------------------------------|
C|9---9---9---9---9---9---9---9---|9---9---9---9---9---9---8---8---|11--11--11--11--11--11--11--11--|12--12--12--12--12--12--12--12--|
G|9---9---9---9---9---9---9---9---|9---9---9---9---9---9---8---8---|11--11--11--11--11--11--11--11--|12--12--12--12--12--12--12--12--|
D|7---7---7---7---7---7---7---7---|7---7---7---7---7---7---6---6---|9---9---9---9---9---9---9---9---|10--10--10--10--10--10--10--10--|


Bridge:

(Lasă lumea cu PC-urile...)

    G                                D                                A                                A
d|--------------------------------|--------------------------------|---------------------------------|--------------------------------|
A|--------------------------------|--------------------------------|---------------------------------|--------------------------------|
F|9------------------------------/|13-----------------------------|8--------------------------------|11------------------------------|
C|--------------------------------|--------------------------------|---------------------------------|--------------------------------|
G|--------------------------------|--------------------------------|---------------------------------|--------------------------------|
D|--------------------------------|--------------------------------|---------------------------------|--------------------------------|

    G                                D                                A                                A
d|--------------------------------|--------------------------------|---------------------------------|--------------------------------|
A|--------------------------------|--------------------------------|---------------------------------|--------------------------------|
F|9------------------------------/|13-----------------------------|8--------------------------------|--------------------------------|
C|--------------------------------|--------------------------------|---------------------------------|--------------------------------|
G|--------------------------------|--------------------------------|---------------------------------|--------------------------------|
D|--------------------------------|--------------------------------|---------------------------------|--------------------------------|


Un înger doarme dus într-un costum de scafandru
O sirenă sună noaptea și reproșul e tandru
Sună, sună, până răspunde cineva

O locomotivă-n casă căutând, căutând
O generație-n flăcări ezitând, ezitând
O pasăre cântând într-o armură de-oțel

   D                                        Dsus9

d|0----0----0----0----0----0----0----0----|0----0----0----0----0----0----0----0----|
A|0----0----0----0----0----0----0----0----|0----0----0----0----0----0----0----0----|
F|13---13---13---13---13---13---13---14---|14---14---14---14---14---14---14---14---|
D|0----0----0----0----0----0----0----0----|0----0----0----0----0----0----0----0----|
G|11---11---11---11---11---11---11---12---|12---12---12---12---12---12---12---12---|
D|----------------------------------------|----------------------------------------|

Liniștea nu înseamnă lipsa muzicii
Să ai umor nu înseamnă să spui bancuri
Dragostea nu înseamnă flori și mai târziu copii

Lasă lumea cu pustiurile
Iubirea cu aminitirile
Și copii cu CD-urile
Și fă-te că dansezi
Tu fă-te că dansezi

Liniștea nu înseamnă lipsa muzicii
Să ai umor nu înseamnă să spui bancuri
Dragostea nu înseamnă flori și mai târziu copii

O pasăre cântând
O pasăre cântând într-o armură de-oțel