Romica Puceanu - Saraiman

Romica Puceanu - Saraiman

Intro:
e|-----------------------|
B|-----------------------|
G|-----------------------|
D|-----9-9-9-9-7--9------|
A|---9-------------------|
E|-----------------------| x4


e|-----------------|------------------------|
B|-----------------|----7-8-10-8-7h8p7------|
G|-----8~-----9~---|8-9---------------------|
D|---9------9------|------------------------|
A|-----------------|------------------------|
E|-----------------|------------------------|

e|-----------------|------------------------|
B|-----------------|------------------------|
G|-----8~-----9~---|-------9-8--------------|
D|---9------9------|7-9-10-----10-9h10p9----|
A|-----------------|------------------------|
E|-----------------|------------------------| x 2


   B             C
   De te-ar bate neica, bate
e|--------------------------|
B|------------9h10----------|
G|-8-9-11-11-------12-11-9--|
D|--------------------------|
A|--------------------------|
E|--------------------------|

   Am         B
   Dragostele mele toate
e|--------------------------|
B|-9h10---------------------|
G|------12-11-9--8p9-8------|
D|---------------------10-9-|
A|--------------------------|
E|--------------------------|

Dragostele mele toate
Saraiman si saraiman x 2


Bridge:

   Em
   Nu cred c-ai putea dormi
e|----------------------------|
B|----------------------------|
G|-7-9-9--9--9-9-9--7--10-8-7-|
D|----------------------------|
A|----------------------------|
E|----------------------------|

   D
   Nici pe alta a iubi
e|----------------------------|
B|----------------------------|
G|-6-7-7--7--7-7-7--7---------|
D|----------------------------|
A|----------------------------|
E|----------------------------|

   C                  B
   Aaaaa aaa, aaaaa aaa
e|------------------------------------|
B|-----7-8-7---------------7----------|
G|-7-9-------9-7-----9-9-8---8-9------|
D|---------------10--------------10-9-|
A|------------------------------------|
E|------------------------------------|


Refren

   B     Dm   Am-A7 D-D7       
   Aaa,  aaa, aaa,  aaa
e|------------------------------------|
B|------------------------------------|
G|---5-7-9--7-5-4------4-5-7--5-4-2---|
D|-9--------------7--7--------------5-|
A|------------------------------------|
E|------------------------------------|

   G-G7  C-C7    B                       
   Aaa,  aaa, aaaa, aaaa
e|-------------------------------------------|
B|-------------------------------------------|
G|---2-4-5--4-2-0------1-2-4-2-1---4-2-1-----|
D|-5--------------3--3-----------3-------3-2-|
A|-------------------------------------------|
E|-------------------------------------------|


Caci iubire ca a mea
Nu gasesti la nimenea
Nu gasesti la nimenea
Saraiman si saraiman x 2 

Si nici suflet mai cu dor
Pentru tine puisor
Aaaaa aaa, aaaaa aaa

Aaa aaa, aaa, aaa
Aaa, aaa, aaaa, aaaa

Neica de-as sti c-ai veni
Drumul ti l-as pietrui
Drumul ti l-as pietrui
Saraiman si saraiman x 2

Tot cu flori si cu safiu
Ca sa nu vii prea tarziu
Aaaaa aaa, aaaaa aaa x 2

Refren x 2