Romica Puceanu - Saraiman

  • (2 voturi)
  • Contribuție:  strabon
  • Ultima actualizare: 03.03.2013
intro:
e|--------------------|
b|--------------------|
g|--------------------|
d|------9-9--7--9-----|
a|---9----------------|
e|--------------------| x4

e|----------------------------------|------------------------|
b|----------------------------------|----7-8-10-8-7---7------|
g|------8-8-----8-----9-9-----9-----|8-9------------9--------|
d|---9-------9------9-------9-------|------------------------|
a|----------------------------------|------------------------|
e|----------------------------------|------------------------|

e|----------------------------------|------------------------|
b|----------------------------------|------------------------|
g|------8-8-----8-----9-9-----9-----|--------9-8-------------|
d|---9-------9------9-------9-------|-7-9-10-----10-9-7-9----|
a|----------------------------------|------------------------|
e|----------------------------------|------------------------|

B             C
De te-ar bate neica, bate
Am         B
Dragostile mele toate
Dragostile mele toate
Saraiman si saraiman
x2
bridge:
Em
Nu cred c-ai putea dormi
D
Nici pe alta a iubi
C                B
Aaaaaaaa, aaaaaaaa

refren
Em         D     
Aaaaaa, aaaa,aaaa
   C              B                        
Aaaa,aaaa,aaaa,aaaa

retornela refren line

Caci iubire ca a mea
Nu gasesti la nimenea
Nu gasesti la nimenea
Saraiman si saraiman
x2

Si nici suflet mai cu dor
Pentru tine puisor
Aaaaaaaa, aaaaaaaa

Aaaaaa, aaaa,aaaa
Aaaa,aaaa,aaaa,aaaa

retornela refren line

Neica de-as sti c-ai veni
Drumul ti l-as pietrui
Drumul ti l-as pietrui
Saraiman si saraiman
x2

Tot cu flori si cu safiu
Ca sa nu vii prea tarziu
Aaaaaaaa, aaaaaaaa
x2

refren x2