Roșu și Negru - Pseudofabula (intro)

Pseudofabula  (solo intro)

e------------------------------------------------------
B-----------0-1-0-----------3-2-0---------3-2-0--------
G------1-2-------2-1-2----2-------2-----2-------2-4-4--
D--2-4------------------4----------4--4----------------
A------------------------------------------------------
E------------------------------------------------------



e------------------------------------------------------
B------------------------------------------------------
G------------------------------------------------------
D---------------------------0--------------0-------------
A--------0--2-4-2-0---0-------4-2-0----------4-2-0-2-2---
E--0-2-4------------4---2-2---------2—-2-2---------------

Multumesc amicului meu de acum ,Zucker Mark care si-a dat 100% aportul eu doar facand acesta transcriere.