Sarmalele Reci - Telefonul nu mai suna (GuitarPro intro, toate instrumentele)

  • (4 voturi)
  • Contribuție:  anonim680
Nota administratorului: Am exportat pistele, vreo 5 la numar, din fisierul 
GuitarPro, pentru cei care nu au GuitarPro.

Armonie
      H           Q    Q    H           Q    Q    H         
E||------------|---------------------|---------------------|
B||------------|------------0--------|------------0--------|
G||*-----------|-------0-------------|-------0-------------|
D||*-----------|--0------------------|--0------------------|
A||------------|---------------------|---------------------|
E||------------|---------------------|---------------------|


  Q    Q    H           Q    Q    Q    Q       Q    Q    H         
---------------------|----------------------|---------------------|
------------0--------|------------0---------|------------1--------|
-------0-------------|-------0--------------|-------0-------------|
--2------------------|--2-------------------|--2------------------|
---------------------|-----------------0----|---------------------|
---------------------|----------------------|---------------------|


  Q    Q    Q    Q       Q    Q    H           Q    Q         Q    Q     
----------------------|---------------------|-------------||------------|
------------1---------|------------0--------|-------------||------------|
-------0--------------|-------0-------------|-------0----*||-------0----|
--2-------------------|--0------------------|--0---------*||--0---------|
-----------------2----|---------------------|-------------||------------|
----------------------|---------------------|-------------||------------|


  H           Q    Q    H           Q    Q    H           Q    Q    H         
-----------|---------------------|---------------------|---------------------|
-----------|------------0--------|------------0--------|------------0--------|
-----------|-------0-------------|-------0-------------|-------0-------------|
-----------|--0------------------|--0------------------|--2------------------|
-----------|---------------------|---------------------|---------------------|
-----------|---------------------|---------------------|---------------------|


  Q    Q    Q    Q       Q    Q    H           Q    Q    Q    Q     
----------------------|---------------------|----------------------|
------------0---------|------------1--------|------------1---------|
-------0--------------|-------0-------------|-------0--------------|
--2-------------------|--2------------------|--2-------------------|
-----------------0----|---------------------|-----------------2----|
----------------------|---------------------|----------------------|


  Q    Q    H           Q    Q       H           Q    Q    H         
---------------------|------------|-----------|---------------------|
------------0--------|------------|-----------|------------0--------|
-------0-------------|-------0----|-----------|-------0-------------|
--0------------------|--0---------|-----------|--0------------------|
---------------------|------------|-----------|---------------------|
---------------------|------------|-----------|---------------------|


  Q    Q    H           Q    Q    H           Q    Q    Q    Q     
---------------------|---------------------|----------------------|
------------0--------|------------0--------|------------0---------|
-------0-------------|-------0-------------|-------0--------------|
--0------------------|--2------------------|--2-------------------|
---------------------|---------------------|-----------------0----|
---------------------|---------------------|----------------------|


  Q    Q    H           Q    Q    Q    Q       Q    Q    H           Q    Q     
---------------------|----------------------|---------------------|------------|
------------1--------|------------1---------|------------0--------|------------|
-------0-------------|-------0--------------|-------0-------------|-------0----|
--2------------------|--2-------------------|--0------------------|--0---------|
---------------------|-----------------2----|---------------------|------------|
---------------------|----------------------|---------------------|------------|


-------||
-------||
-------||
-------||
-------||
-------||




Solo
      Q    Q       Q    Q    H           H        Q    Q     
E||-------------|---------------------|-----------3----3----|
B||---3----3----|--3----3----3--------|-----------3----3----|
G||*------------|------------4--------|---------------------|
D||*------------|---------------------|---------------------|
A||-------------|---------------------|---------------------|
E||-------------|---------------------|---------------------|


  Q    Q    H           H        Q    Q       Q    Q    H         
--3----3-------------|---------------------|---------------------|
--3----3----3--------|-----------1----1----|--1----1-------------|
------------4--------|-----------0----0----|--0----0----0--------|
---------------------|---------------------|------------2--------|
---------------------|---------------------|---------------------|
---------------------|---------------------|---------------------|


  H        Q    Q       Q    Q    H           H             H         
---------------------|---------------------|------------||-----------|
---------------------|---------------------|------------||-----------|
-----------4----4----|--4----4-------------|-----------*||-----------|
-----------4----4----|--4----4----4--------|-----------*||-----------|
---------------------|------------5--------|------------||-----------|
---------------------|---------------------|------------||-----------|


  Q    Q       Q    Q    H           H        Q    Q       Q    Q    H         
------------|---------------------|-----------3----3----|--3----3-------------|
--3----3----|--3----3----3--------|-----------3----3----|--3----3----3--------|
------------|------------4--------|---------------------|------------4--------|
------------|---------------------|---------------------|---------------------|
------------|---------------------|---------------------|---------------------|
------------|---------------------|---------------------|---------------------|


  H        Q    Q       Q    Q    H           H        Q    Q     
---------------------|---------------------|---------------------|
-----------1----1----|--1----1-------------|---------------------|
-----------0----0----|--0----0----0--------|-----------4----4----|
---------------------|------------2--------|-----------4----4----|
---------------------|---------------------|---------------------|
---------------------|---------------------|---------------------|


  Q    Q    H           H           Q    Q       Q    Q    H         
---------------------|-----------|------------|---------------------|
---------------------|-----------|--3----3----|--3----3----3--------|
--4----4-------------|-----------|------------|------------4--------|
--4----4----4--------|-----------|------------|---------------------|
------------5--------|-----------|------------|---------------------|
---------------------|-----------|------------|---------------------|


  H        Q    Q       Q    Q    H           H        Q    Q     
-----------3----3----|--3----3-------------|---------------------|
-----------3----3----|--3----3----3--------|-----------1----1----|
---------------------|------------4--------|-----------0----0----|
---------------------|---------------------|---------------------|
---------------------|---------------------|---------------------|
---------------------|---------------------|---------------------|


  Q    Q    H           H        Q    Q       Q    Q    H           H         
---------------------|---------------------|---------------------|-----------|
--1----1-------------|---------------------|---------------------|-----------|
--0----0----0--------|-----------4----4----|--4----4-------------|-----------|
------------2--------|-----------4----4----|--4----4----4--------|-----------|
---------------------|---------------------|------------5--------|-----------|
---------------------|---------------------|---------------------|-----------|


-------------------||
-------------------||
-------------------||
-------------------||
-------------------||
-------------------||





Bas
      H           W                   W                   W                 
G||------------|-------------------|-------------------|-------------------|
D||*-----------|-------------------|-------------------|-------------------|
A||*-----------|-------------------|-------------------|-------------------|
E||------------|-------------------|-------------------|-------------------|


  W                   W                   W                   W                 
-------------------|-------------------|-------------------|-------------------|
-------------------|-------------------|-------------------|-------------------|
-------------------|-------------------|-------------------|-------------------|
-------------------|-------------------|-------------------|-------------------|


  H             Q    Q        Q    Q       H        Q    Q     
------------||-------------|------------|---------------------|
-----------*||-------------|------------|---------------------|
-----------*||-------------|------------|---------------------|
------------||-------8----|-------3----|--L-------------3----|


  H        Q    Q       H        Q    Q       H        Q    Q     
---------------------|---------------------|---------------------|
---------------------|---------------------|---------------------|
---------------------|---------------------|----------------0----|
--3-------------0----|--L-------------0----|--0------------------|


  H        Q    Q       H        Q    Q       H        Q    Q       H          
---------------------|---------------------|---------------------|------------|
---------------------|---------------------|---------------------|------------|
--L-------------0----|--0-------------2----|--L-------------2----|--2--------|
---------------------|---------------------|---------------------|------------|


  Q    Q       H        Q    Q       H        Q    Q       H        Q    Q     
------------|---------------------|---------------------|---------------------|
------------|---------------------|---------------------|---------------------|
------------|---------------------|---------------------|---------------------|
-------3----|--L-------------3----|--3-------------0----|--L-------------0----|


  H        Q    Q       H        Q    Q       H        Q    Q     
---------------------|---------------------|---------------------|
---------------------|---------------------|---------------------|
----------------0----|--L-------------0----|--0-------------2----|
--0------------------|---------------------|---------------------|


  H        Q     Q       Q    Q       Q    Q      
----------------------|------------|------------||
----------------------|------------|------------||
--L-------------/2----|--L----0----|--L---------||
----------------------|------------|-------3----||





Vioara Electrica
A||--------|-------|-------|-------|-------|-------|-------|-------|--------||
D||*-------|-------|-------|-------|-------|-------|-------|-------|-------*||
G||*-------|-------|-------|-------|-------|-------|-------|-------|-------*||
C||--------|-------|-------|-------|-------|-------|-------|-------|--------||


          E  E  Q       E  E  E  E  H           Q    Q    Q    E  E   
-------|--5--5--5----|--5--3-----3--2--------|--L--------------5-----|
-------|-------------|-----------------------|-------2----5----------|
-------|-------------|-----------------------|-----------------------|
-------|-------------|-----------------------|-----------------------|


  H        H           H        Q    E  E     H        H         
--3--------2--------|--L--------3----5-----|--------------------|
--------------------|----------------------|--5--------5--------|
--------------------|----------------------|--------------------|
--------------------|----------------------|--------------------|


  H        Q    E  E     H        H           H           E  E  Q     
-----------0----2-----|--------------------|-----------|--5--5--5----|
--L-------------------|--0--------0--------|--L--------|-------------|
----------------------|--------------------|-----------|-------------|
----------------------|--------------------|-----------|-------------|


  E  E  E  E  H           Q    Q    Q    E  E     H        H         
--5--3-----3--2--------|--L--------------5-----|--3--------2--------|
-----------------------|-------2----5----------|--------------------|
-----------------------|-----------------------|--------------------|
-----------------------|-----------------------|--------------------|


  H        Q    E  E     H        H           H        Q    E  E   
--L--------3----5-----|--------------------|-----------0----2-----|
----------------------|--5--------5--------|--L-------------------|
----------------------|--------------------|----------------------|
----------------------|--------------------|----------------------|


  H        H           H           H          
--------------------|-----------|-----------||
--0--------0--------|--L--------|-----------||
--------------------|-----------|-----------||
--------------------|-----------|-----------||






Acordeon
E||--------|-------|-------|-------|-------|-------|-------|-------|--------||
B||--------|-------|-------|-------|-------|-------|-------|-------|--------||
G||*-------|-------|-------|-------|-------|-------|-------|-------|-------*||
D||*-------|-------|-------|-------|-------|-------|-------|-------|-------*||
A||--------|-------|-------|-------|-------|-------|-------|-------|--------||
E||--------|-------|-------|-------|-------|-------|-------|-------|--------||


           E   E   Q        E  E  E  E  H           Q    Q    Q     E  E   
-------|--10--10--10----|--10--8-----8--7--------|--L--------------10-----|
-------|----------------|------------------------|------------8-----------|
-------|----------------|------------------------|-------9----------------|
-------|----------------|------------------------|------------------------|
-------|----------------|------------------------|------------------------|
-------|----------------|------------------------|------------------------|


  H        H           H        Q     E  E     H        H         
--8--------7--------|--L--------8----10-----|--------------------|
--------------------|-----------------------|--8--------8--------|
--------------------|-----------------------|--------------------|
--------------------|-----------------------|--------------------|
--------------------|-----------------------|--------------------|
--------------------|-----------------------|--------------------|


  H         Q    E  E     H        H           H            E   E   Q     
-----------------7-----|--------------------|-----------|--10--10--10----|
--L--------10----------|--------------------|-----------|----------------|
-----------------------|--7--------7--------|--L--------|----------------|
-----------------------|--------------------|-----------|----------------|
-----------------------|--------------------|-----------|----------------|
-----------------------|--------------------|-----------|----------------|


   E  E  E  E  H           Q    Q    Q     E  E     H        H         
--10--8-----8--7--------|--L--------------10-----|--8--------7--------|
------------------------|------------8-----------|--------------------|
------------------------|-------9----------------|--------------------|
------------------------|------------------------|--------------------|
------------------------|------------------------|--------------------|
------------------------|------------------------|--------------------|


  H        Q     E  E     H        H           H         Q    E  E   
--L--------8----10-----|--------------------|-----------------7-----|
-----------------------|--8--------8--------|--L--------10----------|
-----------------------|--------------------|-----------------------|
-----------------------|--------------------|-----------------------|
-----------------------|--------------------|-----------------------|
-----------------------|--------------------|-----------------------|


  H        H           H           H          
--------------------|-----------|-----------||
--------------------|-----------|-----------||
--7--------7--------|--L--------|-----------||
--------------------|-----------|-----------||
--------------------|-----------|-----------||
--------------------|-----------|-----------||
  • Silviu
    6 iunie 2008 09:20
    Mulțumesc frumos...
  • rasgeado
    4 iunie 2008 20:25
    Ok, s-a rezolvat.
  • Silviu
    3 iunie 2008 11:14
    Aș avea și eu o rugăminte: nu am guitarpro și nu-l pot instala (sunt în linux momen și versiunea existentă pentru linux nu-i prea stabilă). Ar putea careva să copieze tab-ul de chitara într-un word și să mi-l trimită pe mail, rogu-vă frumos (la silviu.pop@gmail.com). Chiar m-ar interesa această piesă. Thanks!
  • rasgeado
    18 aprilie 2008 22:24
    Fain, ai ureche buna!